ISO-10303-21;
HEADER;
FILE_DESCRIPTION(('no description'),'unknown implementation level');
FILE_NAME('solidSvzmVzru_e_cCXl7iD0c8WkOr7Y_1.STP','  ',('CIMSOURCE GmbH'),('CADClick - KiM GmbH - www.kimweb.de'),'unknown preprocess','ACIS','unknown authorization');
FILE_SCHEMA(('automotive_design'));
ENDSEC;
DATA;
#1=MECHANICAL_DESIGN_GEOMETRIC_PRESENTATION_REPRESENTATION(' ',(#14,#15,#16,#17,#18,#19,#20,#21,#22,#23,#24,#25,#26,#27,#28,#29,#30,#31,#32,#33,#34,#35,#36,#37,#38,#39,#40,#41,#42,#43,#44,#45,#46,#47,#48,#49,#50,#51,#52,#53,#54,#55,#56,#57,#58,#59,#60),#10);
#2=PRODUCT_DEFINITION_CONTEXT('',#61,'design');
#3=APPLICATION_PROTOCOL_DEFINITION('INTERNATIONAL STANDARD','automotive_design',1994,#61);
#4=PRODUCT_CATEGORY_RELATIONSHIP('NONE','NONE',#62,#63);
#5=SHAPE_DEFINITION_REPRESENTATION(#64,#65);
#6=PRODUCT_DEFINITION_CONTEXT('',#66,'design');
#7=APPLICATION_PROTOCOL_DEFINITION('INTERNATIONAL STANDARD','automotive_design',1994,#66);
#8=PRODUCT_CATEGORY_RELATIONSHIP('NONE','NONE',#67,#68);
#9=SHAPE_DEFINITION_REPRESENTATION(#69,#70);
#10= (GEOMETRIC_REPRESENTATION_CONTEXT(3)GLOBAL_UNCERTAINTY_ASSIGNED_CONTEXT((#73))GLOBAL_UNIT_ASSIGNED_CONTEXT((#75,#76,#77))REPRESENTATION_CONTEXT('NONE','WORKSPACE'));
#14=STYLED_ITEM('',(#79),#80);
#15=STYLED_ITEM('',(#81),#82);
#16=STYLED_ITEM('',(#83),#84);
#17=STYLED_ITEM('',(#85),#86);
#18=STYLED_ITEM('',(#87),#88);
#19=STYLED_ITEM('',(#89),#90);
#20=STYLED_ITEM('',(#91),#92);
#21=STYLED_ITEM('',(#93),#94);
#22=STYLED_ITEM('',(#95),#96);
#23=STYLED_ITEM('',(#97),#98);
#24=STYLED_ITEM('',(#99),#100);
#25=STYLED_ITEM('',(#101),#102);
#26=STYLED_ITEM('',(#103),#104);
#27=STYLED_ITEM('',(#105),#106);
#28=STYLED_ITEM('',(#107),#108);
#29=STYLED_ITEM('',(#109),#110);
#30=STYLED_ITEM('',(#111),#112);
#31=STYLED_ITEM('',(#113),#114);
#32=STYLED_ITEM('',(#115),#116);
#33=STYLED_ITEM('',(#117),#118);
#34=STYLED_ITEM('',(#119),#120);
#35=STYLED_ITEM('',(#121),#122);
#36=STYLED_ITEM('',(#123),#124);
#37=STYLED_ITEM('',(#125),#126);
#38=STYLED_ITEM('',(#127),#128);
#39=STYLED_ITEM('',(#129),#130);
#40=STYLED_ITEM('',(#131),#132);
#41=STYLED_ITEM('',(#133),#134);
#42=STYLED_ITEM('',(#135),#136);
#43=STYLED_ITEM('',(#137),#138);
#44=STYLED_ITEM('',(#139),#140);
#45=STYLED_ITEM('',(#141),#142);
#46=STYLED_ITEM('',(#143),#144);
#47=STYLED_ITEM('',(#145),#146);
#48=STYLED_ITEM('',(#147),#148);
#49=STYLED_ITEM('',(#149),#150);
#50=STYLED_ITEM('',(#151),#152);
#51=STYLED_ITEM('',(#153),#154);
#52=STYLED_ITEM('',(#155),#156);
#53=STYLED_ITEM('',(#157),#158);
#54=STYLED_ITEM('',(#159),#160);
#55=STYLED_ITEM('',(#161),#162);
#56=STYLED_ITEM('',(#163),#164);
#57=STYLED_ITEM('',(#165),#166);
#58=STYLED_ITEM('',(#167),#168);
#59=STYLED_ITEM('',(#169),#170);
#60=STYLED_ITEM('',(#171),#172);
#61=APPLICATION_CONTEXT(' ');
#62=PRODUCT_CATEGORY('part','NONE');
#63=PRODUCT_RELATED_PRODUCT_CATEGORY('detail',' ',(#173));
#64=PRODUCT_DEFINITION_SHAPE('NONE','NONE',#174);
#65=ADVANCED_BREP_SHAPE_REPRESENTATION('1',(#84,#175),#10);
#66=APPLICATION_CONTEXT(' ');
#67=PRODUCT_CATEGORY('part','NONE');
#68=PRODUCT_RELATED_PRODUCT_CATEGORY('detail',' ',(#176));
#69=PRODUCT_DEFINITION_SHAPE('NONE','NONE',#177);
#70=ADVANCED_BREP_SHAPE_REPRESENTATION('2',(#152,#178),#10);
#73=UNCERTAINTY_MEASURE_WITH_UNIT(LENGTH_MEASURE(1.0E-006),#75,'','');
#75= (CONVERSION_BASED_UNIT('MILLIMETRE',#181)LENGTH_UNIT()NAMED_UNIT(#184));
#76= (NAMED_UNIT(#186)PLANE_ANGLE_UNIT()SI_UNIT($,.RADIAN.));
#77= (NAMED_UNIT(#186)SOLID_ANGLE_UNIT()SI_UNIT($,.STERADIAN.));
#79=PRESENTATION_STYLE_ASSIGNMENT((#192));
#80=EDGE_CURVE('',#106,#110,#193,.T.);
#81=PRESENTATION_STYLE_ASSIGNMENT((#194));
#82=EDGE_CURVE('',#114,#126,#195,.T.);
#83=PRESENTATION_STYLE_ASSIGNMENT((#196));
#84=MANIFOLD_SOLID_BREP('1',#197);
#85=PRESENTATION_STYLE_ASSIGNMENT((#198));
#86=EDGE_CURVE('',#92,#120,#199,.T.);
#87=PRESENTATION_STYLE_ASSIGNMENT((#200));
#88=ADVANCED_FACE('',(#201),#202,.F.);
#89=PRESENTATION_STYLE_ASSIGNMENT((#203));
#90=ADVANCED_FACE('',(#204),#205,.T.);
#91=PRESENTATION_STYLE_ASSIGNMENT((#206));
#92=VERTEX_POINT('',#207);
#93=PRESENTATION_STYLE_ASSIGNMENT((#208));
#94=EDGE_CURVE('',#98,#168,#209,.T.);
#95=PRESENTATION_STYLE_ASSIGNMENT((#210));
#96=ADVANCED_FACE('',(#211),#212,.T.);
#97=PRESENTATION_STYLE_ASSIGNMENT((#213));
#98=VERTEX_POINT('',#214);
#99=PRESENTATION_STYLE_ASSIGNMENT((#215));
#100=EDGE_CURVE('',#114,#106,#216,.T.);
#101=PRESENTATION_STYLE_ASSIGNMENT((#217));
#102=VERTEX_POINT('',#218);
#103=PRESENTATION_STYLE_ASSIGNMENT((#219));
#104=EDGE_CURVE('',#102,#106,#220,.T.);
#105=PRESENTATION_STYLE_ASSIGNMENT((#221));
#106=VERTEX_POINT('',#222);
#107=PRESENTATION_STYLE_ASSIGNMENT((#223));
#108=EDGE_CURVE('',#126,#102,#224,.T.);
#109=PRESENTATION_STYLE_ASSIGNMENT((#225));
#110=VERTEX_POINT('',#226);
#111=PRESENTATION_STYLE_ASSIGNMENT((#227));
#112=EDGE_CURVE('',#110,#136,#228,.T.);
#113=PRESENTATION_STYLE_ASSIGNMENT((#229));
#114=VERTEX_POINT('',#230);
#115=PRESENTATION_STYLE_ASSIGNMENT((#231));
#116=ADVANCED_FACE('',(#232),#233,.F.);
#117=PRESENTATION_STYLE_ASSIGNMENT((#234));
#118=ADVANCED_FACE('',(#235),#236,.T.);
#119=PRESENTATION_STYLE_ASSIGNMENT((#237));
#120=VERTEX_POINT('',#238);
#121=PRESENTATION_STYLE_ASSIGNMENT((#239));
#122=EDGE_CURVE('',#162,#92,#240,.T.);
#123=PRESENTATION_STYLE_ASSIGNMENT((#241));
#124=EDGE_CURVE('',#168,#140,#242,.T.);
#125=PRESENTATION_STYLE_ASSIGNMENT((#243));
#126=VERTEX_POINT('',#244);
#127=PRESENTATION_STYLE_ASSIGNMENT((#245));
#128=EDGE_CURVE('',#102,#126,#246,.T.);
#129=PRESENTATION_STYLE_ASSIGNMENT((#247));
#130=ADVANCED_FACE('',(#248),#249,.T.);
#131=PRESENTATION_STYLE_ASSIGNMENT((#250));
#132=EDGE_CURVE('',#106,#114,#251,.T.);
#133=PRESENTATION_STYLE_ASSIGNMENT((#252));
#134=ADVANCED_FACE('',(#253),#254,.T.);
#135=PRESENTATION_STYLE_ASSIGNMENT((#255));
#136=VERTEX_POINT('',#256);
#137=PRESENTATION_STYLE_ASSIGNMENT((#257));
#138=ADVANCED_FACE('',(#258),#259,.T.);
#139=PRESENTATION_STYLE_ASSIGNMENT((#260));
#140=VERTEX_POINT('',#261);
#141=PRESENTATION_STYLE_ASSIGNMENT((#262));
#142=EDGE_CURVE('',#170,#162,#263,.T.);
#143=PRESENTATION_STYLE_ASSIGNMENT((#264));
#144=EDGE_CURVE('',#120,#92,#265,.T.);
#145=PRESENTATION_STYLE_ASSIGNMENT((#266));
#146=EDGE_CURVE('',#168,#98,#267,.T.);
#147=PRESENTATION_STYLE_ASSIGNMENT((#268));
#148=ADVANCED_FACE('',(#269),#270,.T.);
#149=PRESENTATION_STYLE_ASSIGNMENT((#271));
#150=EDGE_CURVE('',#136,#114,#272,.T.);
#151=PRESENTATION_STYLE_ASSIGNMENT((#273));
#152=MANIFOLD_SOLID_BREP('2',#274);
#153=PRESENTATION_STYLE_ASSIGNMENT((#275));
#154=EDGE_CURVE('',#162,#170,#276,.T.);
#155=PRESENTATION_STYLE_ASSIGNMENT((#277));
#156=ADVANCED_FACE('',(#278),#279,.T.);
#157=PRESENTATION_STYLE_ASSIGNMENT((#280));
#158=EDGE_CURVE('',#140,#98,#281,.T.);
#159=PRESENTATION_STYLE_ASSIGNMENT((#282));
#160=EDGE_CURVE('',#120,#170,#283,.T.);
#161=PRESENTATION_STYLE_ASSIGNMENT((#284));
#162=VERTEX_POINT('',#285);
#163=PRESENTATION_STYLE_ASSIGNMENT((#286));
#164=ADVANCED_FACE('',(#287,#288),#289,.T.);
#165=PRESENTATION_STYLE_ASSIGNMENT((#290));
#166=ADVANCED_FACE('',(#291),#292,.T.);
#167=PRESENTATION_STYLE_ASSIGNMENT((#293));
#168=VERTEX_POINT('',#294);
#169=PRESENTATION_STYLE_ASSIGNMENT((#295));
#170=VERTEX_POINT('',#296);
#171=PRESENTATION_STYLE_ASSIGNMENT((#297));
#172=EDGE_CURVE('',#136,#110,#298,.T.);
#173=PRODUCT('1','1','PART-1-DESC',(#299));
#174=PRODUCT_DEFINITION('NONE','NONE',#300,#2);
#175=AXIS2_PLACEMENT_3D('',#301,#302,#303);
#176=PRODUCT('2','2','PART-2-DESC',(#304));
#177=PRODUCT_DEFINITION('NONE','NONE',#305,#6);
#178=AXIS2_PLACEMENT_3D('',#306,#307,#308);
#181=LENGTH_MEASURE_WITH_UNIT(LENGTH_MEASURE(1.0),#309);
#184=DIMENSIONAL_EXPONENTS(1.0,0.0,0.0,0.0,0.0,0.0,0.0);
#186=DIMENSIONAL_EXPONENTS(0.0,0.0,0.0,0.0,0.0,0.0,0.0);
#192=CURVE_STYLE('',#310,POSITIVE_LENGTH_MEASURE(1.0E-006),#311);
#193=LINE('',#312,#313);
#194=CURVE_STYLE('',#314,POSITIVE_LENGTH_MEASURE(1.0E-006),#315);
#195=LINE('',#316,#317);
#196=SURFACE_STYLE_USAGE(.BOTH.,#318);
#197=CLOSED_SHELL('',(#138,#88,#116,#164,#118,#166));
#198=CURVE_STYLE('',#319,POSITIVE_LENGTH_MEASURE(1.0E-006),#320);
#199=CIRCLE('',#321,5.5559);
#200=SURFACE_STYLE_USAGE(.BOTH.,#322);
#201=FACE_OUTER_BOUND('',#323,.T.);
#202=CONICAL_SURFACE('',#324,2.77545,1.56899481907869);
#203=SURFACE_STYLE_USAGE(.BOTH.,#325);
#204=FACE_OUTER_BOUND('',#326,.T.);
#205=CONICAL_SURFACE('',#327,4.53329194313172,0.523598775598299);
#206=POINT_STYLE(' ',#328,POSITIVE_LENGTH_MEASURE(1.0E-006),#329);
#207=CARTESIAN_POINT('',(6.80379044120174E-016,-5.5559,-42.89));
#208=CURVE_STYLE('',#330,POSITIVE_LENGTH_MEASURE(1.0E-006),#331);
#209=CIRCLE('',#332,5.5509);
#210=SURFACE_STYLE_USAGE(.BOTH.,#333);
#211=FACE_OUTER_BOUND('',#334,.T.);
#212=PLANE('',#335);
#213=POINT_STYLE(' ',#336,POSITIVE_LENGTH_MEASURE(1.0E-006),#337);
#214=CARTESIAN_POINT('',(6.79766740943263E-016,-5.5509,-42.89));
#215=CURVE_STYLE('',#338,POSITIVE_LENGTH_MEASURE(1.0E-006),#339);
#216=CIRCLE('',#340,4.7625);
#217=POINT_STYLE(' ',#341,POSITIVE_LENGTH_MEASURE(1.0E-006),#342);
#218=CARTESIAN_POINT('',(0.0,-4.7625,-42.89));
#219=CURVE_STYLE('',#343,POSITIVE_LENGTH_MEASURE(1.0E-006),#344);
#220=LINE('',#345,#346);
#221=POINT_STYLE(' ',#347,POSITIVE_LENGTH_MEASURE(1.0E-006),#348);
#222=CARTESIAN_POINT('',(5.83218776007907E-016,-4.7625,-0.783999999999995));
#223=CURVE_STYLE('',#349,POSITIVE_LENGTH_MEASURE(1.0E-006),#350);
#224=CIRCLE('',#351,4.7625);
#225=POINT_STYLE(' ',#352,POSITIVE_LENGTH_MEASURE(1.0E-006),#353);
#226=CARTESIAN_POINT('',(5.27080847450272E-016,-4.30408388626344,0.0100000000000051));
#227=CURVE_STYLE('',#354,POSITIVE_LENGTH_MEASURE(1.0E-006),#355);
#228=CIRCLE('',#356,4.30408388626344);
#229=POINT_STYLE(' ',#357,POSITIVE_LENGTH_MEASURE(1.0E-006),#358);
#230=CARTESIAN_POINT('',(0.0,4.7625,-0.783999999999995));
#231=SURFACE_STYLE_USAGE(.BOTH.,#359);
#232=FACE_OUTER_BOUND('',#360,.T.);
#233=CONICAL_SURFACE('',#361,2.77545,1.56899481907869);
#234=SURFACE_STYLE_USAGE(.BOTH.,#362);
#235=FACE_OUTER_BOUND('',#363,.T.);
#236=CONICAL_SURFACE('',#364,5.55595,3.93700787398623E-006);
#237=POINT_STYLE(' ',#365,POSITIVE_LENGTH_MEASURE(1.0E-006),#366);
#238=CARTESIAN_POINT('',(0.0,5.5559,-42.89));
#239=CURVE_STYLE('',#367,POSITIVE_LENGTH_MEASURE(1.0E-006),#368);
#240=LINE('',#369,#370);
#241=CURVE_STYLE('',#371,POSITIVE_LENGTH_MEASURE(1.0E-006),#372);
#242=LINE('',#373,#374);
#243=POINT_STYLE(' ',#375,POSITIVE_LENGTH_MEASURE(1.0E-006),#376);
#244=CARTESIAN_POINT('',(-5.83218776007907E-016,4.7625,-42.89));
#245=CURVE_STYLE('',#377,POSITIVE_LENGTH_MEASURE(1.0E-006),#378);
#246=CIRCLE('',#379,4.7625);
#247=SURFACE_STYLE_USAGE(.BOTH.,#380);
#248=FACE_OUTER_BOUND('',#381,.T.);
#249=CYLINDRICAL_SURFACE('',#382,4.7625);
#250=CURVE_STYLE('',#383,POSITIVE_LENGTH_MEASURE(1.0E-006),#384);
#251=CIRCLE('',#385,4.7625);
#252=SURFACE_STYLE_USAGE(.BOTH.,#386);
#253=FACE_OUTER_BOUND('',#387,.T.);
#254=CYLINDRICAL_SURFACE('',#388,4.7625);
#255=POINT_STYLE(' ',#389,POSITIVE_LENGTH_MEASURE(1.0E-006),#390);
#256=CARTESIAN_POINT('',(0.0,4.30408388626344,0.0100000000000051));
#257=SURFACE_STYLE_USAGE(.BOTH.,#391);
#258=FACE_OUTER_BOUND('',#392,.T.);
#259=CONICAL_SURFACE('',#393,5.55595,3.93700787398623E-006);
#260=POINT_STYLE(' ',#394,POSITIVE_LENGTH_MEASURE(1.0E-006),#395);
#261=CARTESIAN_POINT('',(0.0,0.0,-42.9));
#262=CURVE_STYLE('',#396,POSITIVE_LENGTH_MEASURE(1.0E-006),#397);
#263=CIRCLE('',#398,5.556);
#264=CURVE_STYLE('',#399,POSITIVE_LENGTH_MEASURE(1.0E-006),#400);
#265=CIRCLE('',#401,5.5559);
#266=CURVE_STYLE('',#402,POSITIVE_LENGTH_MEASURE(1.0E-006),#403);
#267=CIRCLE('',#404,5.5509);
#268=SURFACE_STYLE_USAGE(.BOTH.,#405);
#269=FACE_OUTER_BOUND('',#406,.T.);
#270=CONICAL_SURFACE('',#407,4.53329194313172,0.523598775598299);
#271=CURVE_STYLE('',#408,POSITIVE_LENGTH_MEASURE(1.0E-006),#409);
#272=LINE('',#410,#411);
#273=SURFACE_STYLE_USAGE(.BOTH.,#412);
#274=CLOSED_SHELL('',(#130,#90,#96,#156,#148,#134));
#275=CURVE_STYLE('',#413,POSITIVE_LENGTH_MEASURE(1.0E-006),#414);
#276=CIRCLE('',#415,5.556);
#277=SURFACE_STYLE_USAGE(.BOTH.,#416);
#278=FACE_OUTER_BOUND('',#417,.T.);
#279=PLANE('',#418);
#280=CURVE_STYLE('',#419,POSITIVE_LENGTH_MEASURE(1.0E-006),#420);
#281=LINE('',#421,#422);
#282=CURVE_STYLE('',#423,POSITIVE_LENGTH_MEASURE(1.0E-006),#424);
#283=LINE('',#425,#426);
#284=POINT_STYLE(' ',#427,POSITIVE_LENGTH_MEASURE(1.0E-006),#428);
#285=CARTESIAN_POINT('',(6.80391290183713E-016,-5.556,-68.29));
#286=SURFACE_STYLE_USAGE(.BOTH.,#429);
#287=FACE_OUTER_BOUND('',#430,.T.);
#288=FACE_BOUND('',#431,.T.);
#289=PLANE('',#432);
#290=SURFACE_STYLE_USAGE(.BOTH.,#433);
#291=FACE_OUTER_BOUND('',#434,.T.);
#292=PLANE('',#435);
#293=POINT_STYLE(' ',#436,POSITIVE_LENGTH_MEASURE(1.0E-006),#437);
#294=CARTESIAN_POINT('',(0.0,5.5509,-42.89));
#295=POINT_STYLE(' ',#438,POSITIVE_LENGTH_MEASURE(1.0E-006),#439);
#296=CARTESIAN_POINT('',(0.0,5.556,-68.29));
#297=CURVE_STYLE('',#440,POSITIVE_LENGTH_MEASURE(1.0E-006),#441);
#298=CIRCLE('',#442,4.30408388626344);
#299=PRODUCT_CONTEXT('',#61,'mechanical');
#300=PRODUCT_DEFINITION_FORMATION_WITH_SPECIFIED_SOURCE(' ','NONE',#173,.NOT_KNOWN.);
#301=CARTESIAN_POINT('',(0.0,0.0,0.0));
#302=DIRECTION('',(0.0,0.0,1.0));
#303=DIRECTION('',(1.0,0.0,0.0));
#304=PRODUCT_CONTEXT('',#66,'mechanical');
#305=PRODUCT_DEFINITION_FORMATION_WITH_SPECIFIED_SOURCE(' ','NONE',#176,.NOT_KNOWN.);
#306=CARTESIAN_POINT('',(0.0,0.0,0.0));
#307=DIRECTION('',(0.0,0.0,1.0));
#308=DIRECTION('',(1.0,0.0,0.0));
#309= (NAMED_UNIT(#184)LENGTH_UNIT()SI_UNIT(.MILLI.,.METRE.));
#310=DRAUGHTING_PRE_DEFINED_CURVE_FONT('continuous');
#311=COLOUR_RGB('',0.498039215803146,0.498039215803146,0.498039215803146);
#312=CARTESIAN_POINT('',(5.55149811729089E-016,-4.53329194313172,-0.386999999999993));
#313=VECTOR('',#444,1.0);
#314=DRAUGHTING_PRE_DEFINED_CURVE_FONT('continuous');
#315=COLOUR_RGB('',0.498039215803146,0.498039215803146,0.498039215803146);
#316=CARTESIAN_POINT('',(-5.83218776007907E-016,4.7625,-16.281));
#317=VECTOR('',#445,1.0);
#318=SURFACE_SIDE_STYLE('',(#446));
#319=DRAUGHTING_PRE_DEFINED_CURVE_FONT('continuous');
#320=COLOUR_RGB('',0.800000011920929,0.800000011920929,0.800000011920929);
#321=AXIS2_PLACEMENT_3D('',#447,#448,#449);
#322=SURFACE_SIDE_STYLE('',(#450));
#323=EDGE_LOOP('',(#451,#452,#453));
#324=AXIS2_PLACEMENT_3D('',#454,#455,#456);
#325=SURFACE_SIDE_STYLE('',(#457));
#326=EDGE_LOOP('',(#458,#459,#460,#461));
#327=AXIS2_PLACEMENT_3D('',#462,#463,#464);
#328=PRE_DEFINED_MARKER('');
#329=COLOUR_RGB('',0.800000011920929,0.800000011920929,0.800000011920929);
#330=DRAUGHTING_PRE_DEFINED_CURVE_FONT('continuous');
#331=COLOUR_RGB('',0.800000011920929,0.800000011920929,0.800000011920929);
#332=AXIS2_PLACEMENT_3D('',#465,#466,#467);
#333=SURFACE_SIDE_STYLE('',(#468));
#334=EDGE_LOOP('',(#469,#470));
#335=AXIS2_PLACEMENT_3D('',#471,#472,#473);
#336=PRE_DEFINED_MARKER('');
#337=COLOUR_RGB('',0.800000011920929,0.800000011920929,0.800000011920929);
#338=DRAUGHTING_PRE_DEFINED_CURVE_FONT('continuous');
#339=COLOUR_RGB('',0.498039215803146,0.498039215803146,0.498039215803146);
#340=AXIS2_PLACEMENT_3D('',#474,#475,#476);
#341=PRE_DEFINED_MARKER('');
#342=COLOUR_RGB('',0.498039215803146,0.498039215803146,0.498039215803146);
#343=DRAUGHTING_PRE_DEFINED_CURVE_FONT('continuous');
#344=COLOUR_RGB('',0.498039215803146,0.498039215803146,0.498039215803146);
#345=CARTESIAN_POINT('',(5.83218776007907E-016,-4.7625,-16.281));
#346=VECTOR('',#477,1.0);
#347=PRE_DEFINED_MARKER('');
#348=COLOUR_RGB('',0.498039215803146,0.498039215803146,0.498039215803146);
#349=DRAUGHTING_PRE_DEFINED_CURVE_FONT('continuous');
#350=COLOUR_RGB('',0.498039215803146,0.498039215803146,0.498039215803146);
#351=AXIS2_PLACEMENT_3D('',#478,#479,#480);
#352=PRE_DEFINED_MARKER('');
#353=COLOUR_RGB('',0.498039215803146,0.498039215803146,0.498039215803146);
#354=DRAUGHTING_PRE_DEFINED_CURVE_FONT('continuous');
#355=COLOUR_RGB('',0.498039215803146,0.498039215803146,0.498039215803146);
#356=AXIS2_PLACEMENT_3D('',#481,#482,#483);
#357=PRE_DEFINED_MARKER('');
#358=COLOUR_RGB('',0.498039215803146,0.498039215803146,0.498039215803146);
#359=SURFACE_SIDE_STYLE('',(#484));
#360=EDGE_LOOP('',(#485,#486,#487));
#361=AXIS2_PLACEMENT_3D('',#488,#489,#490);
#362=SURFACE_SIDE_STYLE('',(#491));
#363=EDGE_LOOP('',(#492,#493,#494,#495));
#364=AXIS2_PLACEMENT_3D('',#496,#497,#498);
#365=PRE_DEFINED_MARKER('');
#366=COLOUR_RGB('',0.800000011920929,0.800000011920929,0.800000011920929);
#367=DRAUGHTING_PRE_DEFINED_CURVE_FONT('continuous');
#368=COLOUR_RGB('',0.800000011920929,0.800000011920929,0.800000011920929);
#369=CARTESIAN_POINT('',(6.80385167151944E-016,-5.55595,-55.59));
#370=VECTOR('',#499,1.0);
#371=DRAUGHTING_PRE_DEFINED_CURVE_FONT('continuous');
#372=COLOUR_RGB('',0.800000011920929,0.800000011920929,0.800000011920929);
#373=CARTESIAN_POINT('',(-3.39883370471632E-016,2.77545,-42.895));
#374=VECTOR('',#500,1.0);
#375=PRE_DEFINED_MARKER('');
#376=COLOUR_RGB('',0.498039215803146,0.498039215803146,0.498039215803146);
#377=DRAUGHTING_PRE_DEFINED_CURVE_FONT('continuous');
#378=COLOUR_RGB('',0.498039215803146,0.498039215803146,0.498039215803146);
#379=AXIS2_PLACEMENT_3D('',#501,#502,#503);
#380=SURFACE_SIDE_STYLE('',(#504));
#381=EDGE_LOOP('',(#505,#506,#507,#508));
#382=AXIS2_PLACEMENT_3D('',#509,#510,#511);
#383=DRAUGHTING_PRE_DEFINED_CURVE_FONT('continuous');
#384=COLOUR_RGB('',0.498039215803146,0.498039215803146,0.498039215803146);
#385=AXIS2_PLACEMENT_3D('',#512,#513,#514);
#386=SURFACE_SIDE_STYLE('',(#515));
#387=EDGE_LOOP('',(#516,#517,#518,#519));
#388=AXIS2_PLACEMENT_3D('',#520,#521,#522);
#389=PRE_DEFINED_MARKER('');
#390=COLOUR_RGB('',0.498039215803146,0.498039215803146,0.498039215803146);
#391=SURFACE_SIDE_STYLE('',(#523));
#392=EDGE_LOOP('',(#524,#525,#526,#527));
#393=AXIS2_PLACEMENT_3D('',#528,#529,#530);
#394=PRE_DEFINED_MARKER('');
#395=COLOUR_RGB('',0.800000011920929,0.800000011920929,0.800000011920929);
#396=DRAUGHTING_PRE_DEFINED_CURVE_FONT('continuous');
#397=COLOUR_RGB('',0.800000011920929,0.800000011920929,0.800000011920929);
#398=AXIS2_PLACEMENT_3D('',#531,#532,#533);
#399=DRAUGHTING_PRE_DEFINED_CURVE_FONT('continuous');
#400=COLOUR_RGB('',0.800000011920929,0.800000011920929,0.800000011920929);
#401=AXIS2_PLACEMENT_3D('',#534,#535,#536);
#402=DRAUGHTING_PRE_DEFINED_CURVE_FONT('continuous');
#403=COLOUR_RGB('',0.800000011920929,0.800000011920929,0.800000011920929);
#404=AXIS2_PLACEMENT_3D('',#537,#538,#539);
#405=SURFACE_SIDE_STYLE('',(#540));
#406=EDGE_LOOP('',(#541,#542,#543,#544));
#407=AXIS2_PLACEMENT_3D('',#545,#546,#547);
#408=DRAUGHTING_PRE_DEFINED_CURVE_FONT('continuous');
#409=COLOUR_RGB('',0.498039215803146,0.498039215803146,0.498039215803146);
#410=CARTESIAN_POINT('',(-5.55149811729089E-016,4.53329194313172,-0.386999999999993));
#411=VECTOR('',#548,1.0);
#412=SURFACE_SIDE_STYLE('',(#549));
#413=DRAUGHTING_PRE_DEFINED_CURVE_FONT('continuous');
#414=COLOUR_RGB('',0.800000011920929,0.800000011920929,0.800000011920929);
#415=AXIS2_PLACEMENT_3D('',#550,#551,#552);
#416=SURFACE_SIDE_STYLE('',(#553));
#417=EDGE_LOOP('',(#554,#555));
#418=AXIS2_PLACEMENT_3D('',#556,#557,#558);
#419=DRAUGHTING_PRE_DEFINED_CURVE_FONT('continuous');
#420=COLOUR_RGB('',0.800000011920929,0.800000011920929,0.800000011920929);
#421=CARTESIAN_POINT('',(3.39883370471632E-016,-2.77545,-42.895));
#422=VECTOR('',#559,1.0);
#423=DRAUGHTING_PRE_DEFINED_CURVE_FONT('continuous');
#424=COLOUR_RGB('',0.800000011920929,0.800000011920929,0.800000011920929);
#425=CARTESIAN_POINT('',(-6.80385167151944E-016,5.55595,-55.59));
#426=VECTOR('',#560,1.0);
#427=PRE_DEFINED_MARKER('');
#428=COLOUR_RGB('',0.800000011920929,0.800000011920929,0.800000011920929);
#429=SURFACE_SIDE_STYLE('',(#561));
#430=EDGE_LOOP('',(#562,#563));
#431=EDGE_LOOP('',(#564,#565));
#432=AXIS2_PLACEMENT_3D('',#566,#567,#568);
#433=SURFACE_SIDE_STYLE('',(#569));
#434=EDGE_LOOP('',(#570,#571));
#435=AXIS2_PLACEMENT_3D('',#572,#573,#574);
#436=PRE_DEFINED_MARKER('');
#437=COLOUR_RGB('',0.800000011920929,0.800000011920929,0.800000011920929);
#438=PRE_DEFINED_MARKER('');
#439=COLOUR_RGB('',0.800000011920929,0.800000011920929,0.800000011920929);
#440=DRAUGHTING_PRE_DEFINED_CURVE_FONT('continuous');
#441=COLOUR_RGB('',0.498039215803146,0.498039215803146,0.498039215803146);
#442=AXIS2_PLACEMENT_3D('',#575,#576,#577);
#444=DIRECTION('',(-6.12303176911189E-017,0.5,0.866025403784439));
#445=DIRECTION('',(0.0,0.0,-1.0));
#446=SURFACE_STYLE_FILL_AREA(#578);
#447=CARTESIAN_POINT('',(0.0,0.0,-42.89));
#448=DIRECTION('',(0.0,0.0,-1.0));
#449=DIRECTION('',(0.0,1.0,0.0));
#450=SURFACE_STYLE_FILL_AREA(#579);
#451=ORIENTED_EDGE('',*,*,#158,.F.);
#452=ORIENTED_EDGE('',*,*,#124,.F.);
#453=ORIENTED_EDGE('',*,*,#94,.F.);
#454=CARTESIAN_POINT('',(0.0,0.0,-42.895));
#455=DIRECTION('',(-0.0,-0.0,1.0));
#456=DIRECTION('',(0.0,1.0,0.0));
#457=SURFACE_STYLE_FILL_AREA(#580);
#458=ORIENTED_EDGE('',*,*,#150,.F.);
#459=ORIENTED_EDGE('',*,*,#172,.T.);
#460=ORIENTED_EDGE('',*,*,#80,.F.);
#461=ORIENTED_EDGE('',*,*,#100,.F.);
#462=CARTESIAN_POINT('',(0.0,0.0,-0.386999999999993));
#463=DIRECTION('',(0.0,-0.0,-1.0));
#464=DIRECTION('',(0.0,1.0,0.0));
#465=CARTESIAN_POINT('',(0.0,0.0,-42.89));
#466=DIRECTION('',(0.0,0.0,-1.0));
#467=DIRECTION('',(0.0,1.0,0.0));
#468=SURFACE_STYLE_FILL_AREA(#581);
#469=ORIENTED_EDGE('',*,*,#128,.T.);
#470=ORIENTED_EDGE('',*,*,#108,.T.);
#471=CARTESIAN_POINT('',(0.0,0.0,-42.89));
#472=DIRECTION('',(0.0,0.0,-1.0));
#473=DIRECTION('',(0.0,-1.0,0.0));
#474=CARTESIAN_POINT('',(0.0,0.0,-0.783999999999995));
#475=DIRECTION('',(0.0,0.0,-1.0));
#476=DIRECTION('',(0.0,1.0,0.0));
#477=DIRECTION('',(-0.0,-0.0,1.0));
#478=CARTESIAN_POINT('',(0.0,0.0,-42.89));
#479=DIRECTION('',(0.0,0.0,-1.0));
#480=DIRECTION('',(0.0,-1.0,0.0));
#481=CARTESIAN_POINT('',(0.0,0.0,0.0100000000000051));
#482=DIRECTION('',(0.0,0.0,-1.0));
#483=DIRECTION('',(0.0,1.0,0.0));
#484=SURFACE_STYLE_FILL_AREA(#582);
#485=ORIENTED_EDGE('',*,*,#158,.T.);
#486=ORIENTED_EDGE('',*,*,#146,.F.);
#487=ORIENTED_EDGE('',*,*,#124,.T.);
#488=CARTESIAN_POINT('',(0.0,0.0,-42.895));
#489=DIRECTION('',(-0.0,-0.0,1.0));
#490=DIRECTION('',(0.0,1.0,0.0));
#491=SURFACE_STYLE_FILL_AREA(#583);
#492=ORIENTED_EDGE('',*,*,#160,.T.);
#493=ORIENTED_EDGE('',*,*,#154,.F.);
#494=ORIENTED_EDGE('',*,*,#122,.T.);
#495=ORIENTED_EDGE('',*,*,#86,.T.);
#496=CARTESIAN_POINT('',(0.0,0.0,-55.59));
#497=DIRECTION('',(0.0,-0.0,-1.0));
#498=DIRECTION('',(0.0,1.0,0.0));
#499=DIRECTION('',(-4.82128485751982E-022,3.93700787397606E-006,0.99999999999225));
#500=DIRECTION('',(1.22460436663578E-016,-0.999998377285413,-0.0018015067417638));
#501=CARTESIAN_POINT('',(0.0,0.0,-42.89));
#502=DIRECTION('',(0.0,0.0,-1.0));
#503=DIRECTION('',(0.0,-1.0,0.0));
#504=SURFACE_STYLE_FILL_AREA(#584);
#505=ORIENTED_EDGE('',*,*,#82,.F.);
#506=ORIENTED_EDGE('',*,*,#100,.T.);
#507=ORIENTED_EDGE('',*,*,#104,.F.);
#508=ORIENTED_EDGE('',*,*,#108,.F.);
#509=CARTESIAN_POINT('',(0.0,0.0,-16.281));
#510=DIRECTION('',(-0.0,-0.0,1.0));
#511=DIRECTION('',(0.0,1.0,0.0));
#512=CARTESIAN_POINT('',(0.0,0.0,-0.783999999999995));
#513=DIRECTION('',(0.0,0.0,-1.0));
#514=DIRECTION('',(0.0,1.0,0.0));
#515=SURFACE_STYLE_FILL_AREA(#585);
#516=ORIENTED_EDGE('',*,*,#82,.T.);
#517=ORIENTED_EDGE('',*,*,#128,.F.);
#518=ORIENTED_EDGE('',*,*,#104,.T.);
#519=ORIENTED_EDGE('',*,*,#132,.T.);
#520=CARTESIAN_POINT('',(0.0,0.0,-16.281));
#521=DIRECTION('',(-0.0,-0.0,1.0));
#522=DIRECTION('',(0.0,1.0,0.0));
#523=SURFACE_STYLE_FILL_AREA(#586);
#524=ORIENTED_EDGE('',*,*,#160,.F.);
#525=ORIENTED_EDGE('',*,*,#144,.T.);
#526=ORIENTED_EDGE('',*,*,#122,.F.);
#527=ORIENTED_EDGE('',*,*,#142,.F.);
#528=CARTESIAN_POINT('',(0.0,0.0,-55.59));
#529=DIRECTION('',(0.0,-0.0,-1.0));
#530=DIRECTION('',(0.0,1.0,0.0));
#531=CARTESIAN_POINT('',(0.0,0.0,-68.29));
#532=DIRECTION('',(0.0,0.0,-1.0));
#533=DIRECTION('',(0.0,1.0,0.0));
#534=CARTESIAN_POINT('',(0.0,0.0,-42.89));
#535=DIRECTION('',(0.0,0.0,-1.0));
#536=DIRECTION('',(0.0,1.0,0.0));
#537=CARTESIAN_POINT('',(0.0,0.0,-42.89));
#538=DIRECTION('',(0.0,0.0,-1.0));
#539=DIRECTION('',(0.0,1.0,0.0));
#540=SURFACE_STYLE_FILL_AREA(#587);
#541=ORIENTED_EDGE('',*,*,#150,.T.);
#542=ORIENTED_EDGE('',*,*,#132,.F.);
#543=ORIENTED_EDGE('',*,*,#80,.T.);
#544=ORIENTED_EDGE('',*,*,#112,.T.);
#545=CARTESIAN_POINT('',(0.0,0.0,-0.386999999999993));
#546=DIRECTION('',(0.0,-0.0,-1.0));
#547=DIRECTION('',(0.0,1.0,0.0));
#548=DIRECTION('',(-6.12303176911189E-017,0.5,-0.866025403784439));
#549=SURFACE_STYLE_FILL_AREA(#588);
#550=CARTESIAN_POINT('',(0.0,0.0,-68.29));
#551=DIRECTION('',(0.0,0.0,-1.0));
#552=DIRECTION('',(0.0,1.0,0.0));
#553=SURFACE_STYLE_FILL_AREA(#589);
#554=ORIENTED_EDGE('',*,*,#172,.F.);
#555=ORIENTED_EDGE('',*,*,#112,.F.);
#556=CARTESIAN_POINT('',(0.0,2.15204194313172,0.0100000000000051));
#557=DIRECTION('',(-0.0,0.0,1.0));
#558=DIRECTION('',(0.0,-1.0,0.0));
#559=DIRECTION('',(1.22460436663578E-016,-0.999998377285413,0.0018015067417638));
#560=DIRECTION('',(-4.82128485751981E-022,3.93700787397606E-006,-0.99999999999225));
#561=SURFACE_STYLE_FILL_AREA(#590);
#562=ORIENTED_EDGE('',*,*,#144,.F.);
#563=ORIENTED_EDGE('',*,*,#86,.F.);
#564=ORIENTED_EDGE('',*,*,#146,.T.);
#565=ORIENTED_EDGE('',*,*,#94,.T.);
#566=CARTESIAN_POINT('',(0.0,5.5534,-42.89));
#567=DIRECTION('',(-0.0,0.0,1.0));
#568=DIRECTION('',(0.0,-1.0,0.0));
#569=SURFACE_STYLE_FILL_AREA(#591);
#570=ORIENTED_EDGE('',*,*,#142,.T.);
#571=ORIENTED_EDGE('',*,*,#154,.T.);
#572=CARTESIAN_POINT('',(0.0,2.7755,-68.29));
#573=DIRECTION('',(0.0,0.0,-1.0));
#574=DIRECTION('',(0.0,1.0,0.0));
#575=CARTESIAN_POINT('',(0.0,0.0,0.0100000000000051));
#576=DIRECTION('',(0.0,0.0,-1.0));
#577=DIRECTION('',(0.0,1.0,0.0));
#578=FILL_AREA_STYLE('',(#592));
#579=FILL_AREA_STYLE('',(#593));
#580=FILL_AREA_STYLE('',(#594));
#581=FILL_AREA_STYLE('',(#595));
#582=FILL_AREA_STYLE('',(#596));
#583=FILL_AREA_STYLE('',(#597));
#584=FILL_AREA_STYLE('',(#598));
#585=FILL_AREA_STYLE('',(#599));
#586=FILL_AREA_STYLE('',(#600));
#587=FILL_AREA_STYLE('',(#601));
#588=FILL_AREA_STYLE('',(#602));
#589=FILL_AREA_STYLE('',(#603));
#590=FILL_AREA_STYLE('',(#604));
#591=FILL_AREA_STYLE('',(#605));
#592=FILL_AREA_STYLE_COLOUR('',#606);
#593=FILL_AREA_STYLE_COLOUR('',#607);
#594=FILL_AREA_STYLE_COLOUR('',#608);
#595=FILL_AREA_STYLE_COLOUR('',#609);
#596=FILL_AREA_STYLE_COLOUR('',#610);
#597=FILL_AREA_STYLE_COLOUR('',#611);
#598=FILL_AREA_STYLE_COLOUR('',#612);
#599=FILL_AREA_STYLE_COLOUR('',#613);
#600=FILL_AREA_STYLE_COLOUR('',#614);
#601=FILL_AREA_STYLE_COLOUR('',#615);
#602=FILL_AREA_STYLE_COLOUR('',#616);
#603=FILL_AREA_STYLE_COLOUR('',#617);
#604=FILL_AREA_STYLE_COLOUR('',#618);
#605=FILL_AREA_STYLE_COLOUR('',#619);
#606=COLOUR_RGB('',0.800000011920929,0.800000011920929,0.800000011920929);
#607=COLOUR_RGB('',0.800000011920929,0.800000011920929,0.800000011920929);
#608=COLOUR_RGB('',0.498039215803146,0.498039215803146,0.498039215803146);
#609=COLOUR_RGB('',0.498039215803146,0.498039215803146,0.498039215803146);
#610=COLOUR_RGB('',0.800000011920929,0.800000011920929,0.800000011920929);
#611=COLOUR_RGB('',0.800000011920929,0.800000011920929,0.800000011920929);
#612=COLOUR_RGB('',0.498039215803146,0.498039215803146,0.498039215803146);
#613=COLOUR_RGB('',0.498039215803146,0.498039215803146,0.498039215803146);
#614=COLOUR_RGB('',0.800000011920929,0.800000011920929,0.800000011920929);
#615=COLOUR_RGB('',0.498039215803146,0.498039215803146,0.498039215803146);
#616=COLOUR_RGB('',0.800000011920929,0.800000011920929,0.800000011920929);
#617=COLOUR_RGB('',0.498039215803146,0.498039215803146,0.498039215803146);
#618=COLOUR_RGB('',0.800000011920929,0.800000011920929,0.800000011920929);
#619=COLOUR_RGB('',0.800000011920929,0.800000011920929,0.800000011920929);
#620=AXIS2_PLACEMENT_3D('PCS',#621,#622,#623);
#621=CARTESIAN_POINT('',(0.0,0.0,0.0));
#622=DIRECTION('',(0.0,0.0,1.0));
#623=DIRECTION('',(1.0,0.0,0.0));
#624=AXIS2_PLACEMENT_3D('CIP',#625,#626,#627);
#625=CARTESIAN_POINT('',(0.0,0.0,-68.3));
#626=DIRECTION('',(0.0,0.0,1.0));
#627=DIRECTION('',(1.0,0.0,0.0));
#628=AXIS2_PLACEMENT_3D('CRP',#629,#630,#631);
#629=CARTESIAN_POINT('',(-5.556,0.0,-68.3));
#630=DIRECTION('',(0.0,0.0,1.0));
#631=DIRECTION('',(1.0,0.0,0.0));
#632=AXIS2_PLACEMENT_3D('MCS',#633,#634,#635);
#633=CARTESIAN_POINT('',(0.0,0.0,-31.788));
#634=DIRECTION('',(0.0,0.0,1.0));
#635=DIRECTION('',(1.0,0.0,0.0));
#636=CONSTRUCTIVE_GEOMETRY_REPRESENTATION_RELATIONSHIP('coordinate systems',$,#65,#637);
#637=CONSTRUCTIVE_GEOMETRY_REPRESENTATION('coordinate systems',(#620,#624,#628,#632),#10);
ENDSEC;
END-ISO-10303-21;
