ISO-10303-21;
HEADER;
FILE_DESCRIPTION(('no description'),'unknown implementation level');
FILE_NAME('soliddOYjbek1YsBBybgu27k8VgqcOKo_1.STP','  ',('CIMSOURCE GmbH'),('CADClick - KiM GmbH - www.kimweb.de'),'unknown preprocess','ACIS','unknown authorization');
FILE_SCHEMA(('automotive_design'));
ENDSEC;
DATA;
#1=MECHANICAL_DESIGN_GEOMETRIC_PRESENTATION_REPRESENTATION(' ',(#10,#11,#12,#13,#14,#15,#16,#17,#18,#19,#20,#21,#22,#23,#24),#6);
#2=PRODUCT_DEFINITION_CONTEXT('',#25,'design');
#3=APPLICATION_PROTOCOL_DEFINITION('INTERNATIONAL STANDARD','automotive_design',1994,#25);
#4=PRODUCT_CATEGORY_RELATIONSHIP('NONE','NONE',#26,#27);
#5=SHAPE_DEFINITION_REPRESENTATION(#28,#29);
#6= (GEOMETRIC_REPRESENTATION_CONTEXT(3)GLOBAL_UNCERTAINTY_ASSIGNED_CONTEXT((#32))GLOBAL_UNIT_ASSIGNED_CONTEXT((#34,#35,#36))REPRESENTATION_CONTEXT('NONE','WORKSPACE'));
#10=STYLED_ITEM('',(#38),#39);
#11=STYLED_ITEM('',(#40),#41);
#12=STYLED_ITEM('',(#42),#43);
#13=STYLED_ITEM('',(#44),#45);
#14=STYLED_ITEM('',(#46),#47);
#15=STYLED_ITEM('',(#48),#49);
#16=STYLED_ITEM('',(#50),#51);
#17=STYLED_ITEM('',(#52),#53);
#18=STYLED_ITEM('',(#54),#55);
#19=STYLED_ITEM('',(#56),#57);
#20=STYLED_ITEM('',(#58),#59);
#21=STYLED_ITEM('',(#60),#61);
#22=STYLED_ITEM('',(#62),#63);
#23=STYLED_ITEM('',(#64),#65);
#24=STYLED_ITEM('',(#66),#67);
#25=APPLICATION_CONTEXT(' ');
#26=PRODUCT_CATEGORY('part','NONE');
#27=PRODUCT_RELATED_PRODUCT_CATEGORY('detail',' ',(#68));
#28=PRODUCT_DEFINITION_SHAPE('NONE','NONE',#69);
#29=ADVANCED_BREP_SHAPE_REPRESENTATION('1',(#45,#70),#6);
#32=UNCERTAINTY_MEASURE_WITH_UNIT(LENGTH_MEASURE(1.0E-006),#34,'','');
#34= (CONVERSION_BASED_UNIT('MILLIMETRE',#73)LENGTH_UNIT()NAMED_UNIT(#76));
#35= (NAMED_UNIT(#78)PLANE_ANGLE_UNIT()SI_UNIT($,.RADIAN.));
#36= (NAMED_UNIT(#78)SOLID_ANGLE_UNIT()SI_UNIT($,.STERADIAN.));
#38=PRESENTATION_STYLE_ASSIGNMENT((#84));
#39=EDGE_CURVE('',#65,#67,#85,.T.);
#40=PRESENTATION_STYLE_ASSIGNMENT((#86));
#41=EDGE_CURVE('',#65,#63,#87,.T.);
#42=PRESENTATION_STYLE_ASSIGNMENT((#88));
#43=EDGE_CURVE('',#51,#67,#89,.T.);
#44=PRESENTATION_STYLE_ASSIGNMENT((#90));
#45=MANIFOLD_SOLID_BREP('1',#91);
#46=PRESENTATION_STYLE_ASSIGNMENT((#92));
#47=ADVANCED_FACE('',(#93),#94,.T.);
#48=PRESENTATION_STYLE_ASSIGNMENT((#95));
#49=EDGE_CURVE('',#67,#51,#96,.T.);
#50=PRESENTATION_STYLE_ASSIGNMENT((#97));
#51=VERTEX_POINT('',#98);
#52=PRESENTATION_STYLE_ASSIGNMENT((#99));
#53=EDGE_CURVE('',#63,#65,#100,.T.);
#54=PRESENTATION_STYLE_ASSIGNMENT((#101));
#55=EDGE_CURVE('',#51,#63,#102,.T.);
#56=PRESENTATION_STYLE_ASSIGNMENT((#103));
#57=ADVANCED_FACE('',(#104),#105,.F.);
#58=PRESENTATION_STYLE_ASSIGNMENT((#106));
#59=ADVANCED_FACE('',(#107),#108,.T.);
#60=PRESENTATION_STYLE_ASSIGNMENT((#109));
#61=ADVANCED_FACE('',(#110),#111,.T.);
#62=PRESENTATION_STYLE_ASSIGNMENT((#112));
#63=VERTEX_POINT('',#113);
#64=PRESENTATION_STYLE_ASSIGNMENT((#114));
#65=VERTEX_POINT('',#115);
#66=PRESENTATION_STYLE_ASSIGNMENT((#116));
#67=VERTEX_POINT('',#117);
#68=PRODUCT('1','1','PART-1-DESC',(#118));
#69=PRODUCT_DEFINITION('NONE','NONE',#119,#2);
#70=AXIS2_PLACEMENT_3D('',#120,#121,#122);
#73=LENGTH_MEASURE_WITH_UNIT(LENGTH_MEASURE(1.0),#123);
#76=DIMENSIONAL_EXPONENTS(1.0,0.0,0.0,0.0,0.0,0.0,0.0);
#78=DIMENSIONAL_EXPONENTS(0.0,0.0,0.0,0.0,0.0,0.0,0.0);
#84=CURVE_STYLE('',#124,POSITIVE_LENGTH_MEASURE(1.0E-006),#125);
#85=LINE('',#126,#127);
#86=CURVE_STYLE('',#128,POSITIVE_LENGTH_MEASURE(1.0E-006),#129);
#87=CIRCLE('',#130,5.07474972850446);
#88=CURVE_STYLE('',#131,POSITIVE_LENGTH_MEASURE(1.0E-006),#132);
#89=CIRCLE('',#133,6.0);
#90=SURFACE_STYLE_USAGE(.BOTH.,#134);
#91=CLOSED_SHELL('',(#59,#47,#57,#61));
#92=SURFACE_STYLE_USAGE(.BOTH.,#135);
#93=FACE_OUTER_BOUND('',#136,.T.);
#94=CONICAL_SURFACE('',#137,6.0,0.191986217719376);
#95=CURVE_STYLE('',#138,POSITIVE_LENGTH_MEASURE(1.0E-006),#139);
#96=CIRCLE('',#140,6.0);
#97=POINT_STYLE(' ',#141,POSITIVE_LENGTH_MEASURE(1.0E-006),#142);
#98=CARTESIAN_POINT('',(12.0,6.0,0.0));
#99=CURVE_STYLE('',#143,POSITIVE_LENGTH_MEASURE(1.0E-006),#144);
#100=CIRCLE('',#145,5.07474972850446);
#101=CURVE_STYLE('',#146,POSITIVE_LENGTH_MEASURE(1.0E-006),#147);
#102=LINE('',#148,#149);
#103=SURFACE_STYLE_USAGE(.BOTH.,#150);
#104=FACE_OUTER_BOUND('',#151,.T.);
#105=PLANE('',#152);
#106=SURFACE_STYLE_USAGE(.BOTH.,#153);
#107=FACE_OUTER_BOUND('',#154,.T.);
#108=CONICAL_SURFACE('',#155,6.0,0.191986217719376);
#109=SURFACE_STYLE_USAGE(.BOTH.,#156);
#110=FACE_OUTER_BOUND('',#157,.T.);
#111=PLANE('',#158);
#112=POINT_STYLE(' ',#159,POSITIVE_LENGTH_MEASURE(1.0E-006),#160);
#113=CARTESIAN_POINT('',(11.0747497285045,6.0,-4.76));
#114=POINT_STYLE(' ',#161,POSITIVE_LENGTH_MEASURE(1.0E-006),#162);
#115=CARTESIAN_POINT('',(0.92525027149554,6.0,-4.76));
#116=POINT_STYLE(' ',#163,POSITIVE_LENGTH_MEASURE(1.0E-006),#164);
#117=CARTESIAN_POINT('',(3.5527136788005E-015,6.00000000000001,0.0));
#118=PRODUCT_CONTEXT('',#25,'mechanical');
#119=PRODUCT_DEFINITION_FORMATION_WITH_SPECIFIED_SOURCE(' ','NONE',#68,.NOT_KNOWN.);
#120=CARTESIAN_POINT('',(0.0,0.0,0.0));
#121=DIRECTION('',(0.0,0.0,1.0));
#122=DIRECTION('',(1.0,0.0,0.0));
#123= (NAMED_UNIT(#76)LENGTH_UNIT()SI_UNIT(.MILLI.,.METRE.));
#124=DRAUGHTING_PRE_DEFINED_CURVE_FONT('continuous');
#125=COLOUR_RGB('',0.800000011920929,0.800000011920929,0.800000011920929);
#126=CARTESIAN_POINT('',(4.44089209850063E-015,6.0,0.0));
#127=VECTOR('',#166,1.0);
#128=DRAUGHTING_PRE_DEFINED_CURVE_FONT('continuous');
#129=COLOUR_RGB('',0.800000011920929,0.800000011920929,0.800000011920929);
#130=AXIS2_PLACEMENT_3D('',#167,#168,#169);
#131=DRAUGHTING_PRE_DEFINED_CURVE_FONT('continuous');
#132=COLOUR_RGB('',0.800000011920929,0.800000011920929,0.800000011920929);
#133=AXIS2_PLACEMENT_3D('',#170,#171,#172);
#134=SURFACE_SIDE_STYLE('',(#173));
#135=SURFACE_SIDE_STYLE('',(#174));
#136=EDGE_LOOP('',(#175,#176,#177,#178));
#137=AXIS2_PLACEMENT_3D('',#179,#180,#181);
#138=DRAUGHTING_PRE_DEFINED_CURVE_FONT('continuous');
#139=COLOUR_RGB('',0.800000011920929,0.800000011920929,0.800000011920929);
#140=AXIS2_PLACEMENT_3D('',#182,#183,#184);
#141=PRE_DEFINED_MARKER('');
#142=COLOUR_RGB('',0.800000011920929,0.800000011920929,0.800000011920929);
#143=DRAUGHTING_PRE_DEFINED_CURVE_FONT('continuous');
#144=COLOUR_RGB('',0.800000011920929,0.800000011920929,0.800000011920929);
#145=AXIS2_PLACEMENT_3D('',#185,#186,#187);
#146=DRAUGHTING_PRE_DEFINED_CURVE_FONT('continuous');
#147=COLOUR_RGB('',0.800000011920929,0.800000011920929,0.800000011920929);
#148=CARTESIAN_POINT('',(12.0,6.0,0.0));
#149=VECTOR('',#188,1.0);
#150=SURFACE_SIDE_STYLE('',(#189));
#151=EDGE_LOOP('',(#190,#191));
#152=AXIS2_PLACEMENT_3D('',#192,#193,#194);
#153=SURFACE_SIDE_STYLE('',(#195));
#154=EDGE_LOOP('',(#196,#197,#198,#199));
#155=AXIS2_PLACEMENT_3D('',#200,#201,#202);
#156=SURFACE_SIDE_STYLE('',(#203));
#157=EDGE_LOOP('',(#204,#205));
#158=AXIS2_PLACEMENT_3D('',#206,#207,#208);
#159=PRE_DEFINED_MARKER('');
#160=COLOUR_RGB('',0.800000011920929,0.800000011920929,0.800000011920929);
#161=PRE_DEFINED_MARKER('');
#162=COLOUR_RGB('',0.800000011920929,0.800000011920929,0.800000011920929);
#163=PRE_DEFINED_MARKER('');
#164=COLOUR_RGB('',0.800000011920929,0.800000011920929,0.800000011920929);
#166=DIRECTION('',(-0.190808995376545,5.64908106593693E-017,0.981627183447664));
#167=CARTESIAN_POINT('',(6.0,6.0,-4.76));
#168=DIRECTION('',(0.0,0.0,1.0));
#169=DIRECTION('',(-1.0,1.48029736616688E-016,0.0));
#170=CARTESIAN_POINT('',(6.0,6.0,0.0));
#171=DIRECTION('',(0.0,0.0,1.0));
#172=DIRECTION('',(1.0,-4.44089209850063E-016,0.0));
#173=SURFACE_STYLE_FILL_AREA(#209);
#174=SURFACE_STYLE_FILL_AREA(#210);
#175=ORIENTED_EDGE('',*,*,#55,.T.);
#176=ORIENTED_EDGE('',*,*,#53,.T.);
#177=ORIENTED_EDGE('',*,*,#39,.T.);
#178=ORIENTED_EDGE('',*,*,#43,.F.);
#179=CARTESIAN_POINT('',(6.0,6.0,0.0));
#180=DIRECTION('',(-0.0,-0.0,1.0));
#181=DIRECTION('',(1.0,-4.44089209850063E-016,0.0));
#182=CARTESIAN_POINT('',(6.0,6.0,0.0));
#183=DIRECTION('',(0.0,0.0,1.0));
#184=DIRECTION('',(1.0,-4.44089209850063E-016,0.0));
#185=CARTESIAN_POINT('',(6.0,6.0,-4.76));
#186=DIRECTION('',(0.0,0.0,1.0));
#187=DIRECTION('',(-1.0,1.48029736616688E-016,0.0));
#188=DIRECTION('',(-0.190808995376545,5.64908106593693E-017,-0.981627183447664));
#189=SURFACE_STYLE_FILL_AREA(#211);
#190=ORIENTED_EDGE('',*,*,#53,.F.);
#191=ORIENTED_EDGE('',*,*,#41,.F.);
#192=CARTESIAN_POINT('',(6.0,6.0,-4.76));
#193=DIRECTION('',(0.0,0.0,1.0));
#194=DIRECTION('',(1.0,0.0,0.0));
#195=SURFACE_STYLE_FILL_AREA(#212);
#196=ORIENTED_EDGE('',*,*,#55,.F.);
#197=ORIENTED_EDGE('',*,*,#49,.F.);
#198=ORIENTED_EDGE('',*,*,#39,.F.);
#199=ORIENTED_EDGE('',*,*,#41,.T.);
#200=CARTESIAN_POINT('',(6.0,6.0,0.0));
#201=DIRECTION('',(-0.0,-0.0,1.0));
#202=DIRECTION('',(1.0,-4.44089209850063E-016,0.0));
#203=SURFACE_STYLE_FILL_AREA(#213);
#204=ORIENTED_EDGE('',*,*,#49,.T.);
#205=ORIENTED_EDGE('',*,*,#43,.T.);
#206=CARTESIAN_POINT('',(6.0,6.0,0.0));
#207=DIRECTION('',(0.0,0.0,1.0));
#208=DIRECTION('',(1.0,0.0,0.0));
#209=FILL_AREA_STYLE('',(#214));
#210=FILL_AREA_STYLE('',(#215));
#211=FILL_AREA_STYLE('',(#216));
#212=FILL_AREA_STYLE('',(#217));
#213=FILL_AREA_STYLE('',(#218));
#214=FILL_AREA_STYLE_COLOUR('',#219);
#215=FILL_AREA_STYLE_COLOUR('',#220);
#216=FILL_AREA_STYLE_COLOUR('',#221);
#217=FILL_AREA_STYLE_COLOUR('',#222);
#218=FILL_AREA_STYLE_COLOUR('',#223);
#219=COLOUR_RGB('',0.800000011920929,0.800000011920929,0.800000011920929);
#220=COLOUR_RGB('',0.800000011920929,0.800000011920929,0.800000011920929);
#221=COLOUR_RGB('',0.800000011920929,0.800000011920929,0.800000011920929);
#222=COLOUR_RGB('',0.800000011920929,0.800000011920929,0.800000011920929);
#223=COLOUR_RGB('',0.800000011920929,0.800000011920929,0.800000011920929);
#224=AXIS2_PLACEMENT_3D('PCS',#225,#226,#227);
#225=CARTESIAN_POINT('',(0.0,0.0,0.0));
#226=DIRECTION('',(0.0,0.0,1.0));
#227=DIRECTION('',(1.0,0.0,0.0));
#228=AXIS2_PLACEMENT_3D('MCS',#229,#230,#231);
#229=CARTESIAN_POINT('',(6.0,6.0,0.0));
#230=DIRECTION('',(0.0,0.0,1.0));
#231=DIRECTION('',(1.0,0.0,0.0));
#232=CONSTRUCTIVE_GEOMETRY_REPRESENTATION_RELATIONSHIP('coordinate systems',$,#29,#233);
#233=CONSTRUCTIVE_GEOMETRY_REPRESENTATION('coordinate systems',(#224,#228),#6);
ENDSEC;
END-ISO-10303-21;
