ISO-10303-21;
HEADER;
FILE_DESCRIPTION(('no description'),'unknown implementation level');
FILE_NAME('solidHNNE5Fgs3yNNtwdsOrwwk2mv7WM_1.STP','  ',('CIMSOURCE GmbH'),('CADClick - KiM GmbH - www.kimweb.de'),'unknown preprocess','ACIS','unknown authorization');
FILE_SCHEMA(('automotive_design'));
ENDSEC;
DATA;
#1=MECHANICAL_DESIGN_GEOMETRIC_PRESENTATION_REPRESENTATION(' ',(#10,#11,#12,#13,#14,#15,#16,#17,#18,#19,#20,#21,#22,#23,#24),#6);
#2=PRODUCT_DEFINITION_CONTEXT('',#25,'design');
#3=APPLICATION_PROTOCOL_DEFINITION('INTERNATIONAL STANDARD','automotive_design',1994,#25);
#4=PRODUCT_CATEGORY_RELATIONSHIP('NONE','NONE',#26,#27);
#5=SHAPE_DEFINITION_REPRESENTATION(#28,#29);
#6= (GEOMETRIC_REPRESENTATION_CONTEXT(3)GLOBAL_UNCERTAINTY_ASSIGNED_CONTEXT((#32))GLOBAL_UNIT_ASSIGNED_CONTEXT((#34,#35,#36))REPRESENTATION_CONTEXT('NONE','WORKSPACE'));
#10=STYLED_ITEM('',(#38),#39);
#11=STYLED_ITEM('',(#40),#41);
#12=STYLED_ITEM('',(#42),#43);
#13=STYLED_ITEM('',(#44),#45);
#14=STYLED_ITEM('',(#46),#47);
#15=STYLED_ITEM('',(#48),#49);
#16=STYLED_ITEM('',(#50),#51);
#17=STYLED_ITEM('',(#52),#53);
#18=STYLED_ITEM('',(#54),#55);
#19=STYLED_ITEM('',(#56),#57);
#20=STYLED_ITEM('',(#58),#59);
#21=STYLED_ITEM('',(#60),#61);
#22=STYLED_ITEM('',(#62),#63);
#23=STYLED_ITEM('',(#64),#65);
#24=STYLED_ITEM('',(#66),#67);
#25=APPLICATION_CONTEXT(' ');
#26=PRODUCT_CATEGORY('part','NONE');
#27=PRODUCT_RELATED_PRODUCT_CATEGORY('detail',' ',(#68));
#28=PRODUCT_DEFINITION_SHAPE('NONE','NONE',#69);
#29=ADVANCED_BREP_SHAPE_REPRESENTATION('1',(#63,#70),#6);
#32=UNCERTAINTY_MEASURE_WITH_UNIT(LENGTH_MEASURE(1.0E-006),#34,'','');
#34= (CONVERSION_BASED_UNIT('MILLIMETRE',#73)LENGTH_UNIT()NAMED_UNIT(#76));
#35= (NAMED_UNIT(#78)PLANE_ANGLE_UNIT()SI_UNIT($,.RADIAN.));
#36= (NAMED_UNIT(#78)SOLID_ANGLE_UNIT()SI_UNIT($,.STERADIAN.));
#38=PRESENTATION_STYLE_ASSIGNMENT((#84));
#39=ADVANCED_FACE('',(#85),#86,.T.);
#40=PRESENTATION_STYLE_ASSIGNMENT((#87));
#41=EDGE_CURVE('',#45,#51,#88,.T.);
#42=PRESENTATION_STYLE_ASSIGNMENT((#89));
#43=EDGE_CURVE('',#57,#55,#90,.T.);
#44=PRESENTATION_STYLE_ASSIGNMENT((#91));
#45=VERTEX_POINT('',#92);
#46=PRESENTATION_STYLE_ASSIGNMENT((#93));
#47=EDGE_CURVE('',#51,#45,#94,.T.);
#48=PRESENTATION_STYLE_ASSIGNMENT((#95));
#49=EDGE_CURVE('',#57,#51,#96,.T.);
#50=PRESENTATION_STYLE_ASSIGNMENT((#97));
#51=VERTEX_POINT('',#98);
#52=PRESENTATION_STYLE_ASSIGNMENT((#99));
#53=ADVANCED_FACE('',(#100),#101,.F.);
#54=PRESENTATION_STYLE_ASSIGNMENT((#102));
#55=VERTEX_POINT('',#103);
#56=PRESENTATION_STYLE_ASSIGNMENT((#104));
#57=VERTEX_POINT('',#105);
#58=PRESENTATION_STYLE_ASSIGNMENT((#106));
#59=EDGE_CURVE('',#55,#57,#107,.T.);
#60=PRESENTATION_STYLE_ASSIGNMENT((#108));
#61=ADVANCED_FACE('',(#109),#110,.T.);
#62=PRESENTATION_STYLE_ASSIGNMENT((#111));
#63=MANIFOLD_SOLID_BREP('1',#112);
#64=PRESENTATION_STYLE_ASSIGNMENT((#113));
#65=ADVANCED_FACE('',(#114),#115,.T.);
#66=PRESENTATION_STYLE_ASSIGNMENT((#116));
#67=EDGE_CURVE('',#45,#55,#117,.T.);
#68=PRODUCT('1','1','PART-1-DESC',(#118));
#69=PRODUCT_DEFINITION('NONE','NONE',#119,#2);
#70=AXIS2_PLACEMENT_3D('',#120,#121,#122);
#73=LENGTH_MEASURE_WITH_UNIT(LENGTH_MEASURE(1.0),#123);
#76=DIMENSIONAL_EXPONENTS(1.0,0.0,0.0,0.0,0.0,0.0,0.0);
#78=DIMENSIONAL_EXPONENTS(0.0,0.0,0.0,0.0,0.0,0.0,0.0);
#84=SURFACE_STYLE_USAGE(.BOTH.,#124);
#85=FACE_OUTER_BOUND('',#125,.T.);
#86=CONICAL_SURFACE('',#126,8.0,0.191986217719376);
#87=CURVE_STYLE('',#127,POSITIVE_LENGTH_MEASURE(1.0E-006),#128);
#88=CIRCLE('',#129,8.0);
#89=CURVE_STYLE('',#130,POSITIVE_LENGTH_MEASURE(1.0E-006),#131);
#90=CIRCLE('',#132,6.91924548119429);
#91=POINT_STYLE(' ',#133,POSITIVE_LENGTH_MEASURE(1.0E-006),#134);
#92=CARTESIAN_POINT('',(16.0,8.0,0.0));
#93=CURVE_STYLE('',#135,POSITIVE_LENGTH_MEASURE(1.0E-006),#136);
#94=CIRCLE('',#137,8.0);
#95=CURVE_STYLE('',#138,POSITIVE_LENGTH_MEASURE(1.0E-006),#139);
#96=LINE('',#140,#141);
#97=POINT_STYLE(' ',#142,POSITIVE_LENGTH_MEASURE(1.0E-006),#143);
#98=CARTESIAN_POINT('',(2.17533787218538E-031,8.00000000000001,0.0));
#99=SURFACE_STYLE_USAGE(.BOTH.,#144);
#100=FACE_OUTER_BOUND('',#145,.T.);
#101=PLANE('',#146);
#102=POINT_STYLE(' ',#147,POSITIVE_LENGTH_MEASURE(1.0E-006),#148);
#103=CARTESIAN_POINT('',(14.9192454811943,8.0,-5.56));
#104=POINT_STYLE(' ',#149,POSITIVE_LENGTH_MEASURE(1.0E-006),#150);
#105=CARTESIAN_POINT('',(1.08075451880571,8.0,-5.56));
#106=CURVE_STYLE('',#151,POSITIVE_LENGTH_MEASURE(1.0E-006),#152);
#107=CIRCLE('',#153,6.91924548119429);
#108=SURFACE_STYLE_USAGE(.BOTH.,#154);
#109=FACE_OUTER_BOUND('',#155,.T.);
#110=CONICAL_SURFACE('',#156,8.0,0.191986217719376);
#111=SURFACE_STYLE_USAGE(.BOTH.,#157);
#112=CLOSED_SHELL('',(#61,#39,#53,#65));
#113=SURFACE_STYLE_USAGE(.BOTH.,#158);
#114=FACE_OUTER_BOUND('',#159,.T.);
#115=PLANE('',#160);
#116=CURVE_STYLE('',#161,POSITIVE_LENGTH_MEASURE(1.0E-006),#162);
#117=LINE('',#163,#164);
#118=PRODUCT_CONTEXT('',#25,'mechanical');
#119=PRODUCT_DEFINITION_FORMATION_WITH_SPECIFIED_SOURCE(' ','NONE',#68,.NOT_KNOWN.);
#120=CARTESIAN_POINT('',(0.0,0.0,0.0));
#121=DIRECTION('',(0.0,0.0,1.0));
#122=DIRECTION('',(1.0,0.0,0.0));
#123= (NAMED_UNIT(#76)LENGTH_UNIT()SI_UNIT(.MILLI.,.METRE.));
#124=SURFACE_SIDE_STYLE('',(#166));
#125=EDGE_LOOP('',(#167,#168,#169,#170));
#126=AXIS2_PLACEMENT_3D('',#171,#172,#173);
#127=DRAUGHTING_PRE_DEFINED_CURVE_FONT('continuous');
#128=COLOUR_RGB('',0.800000011920929,0.800000011920929,0.800000011920929);
#129=AXIS2_PLACEMENT_3D('',#174,#175,#176);
#130=DRAUGHTING_PRE_DEFINED_CURVE_FONT('continuous');
#131=COLOUR_RGB('',0.800000011920929,0.800000011920929,0.800000011920929);
#132=AXIS2_PLACEMENT_3D('',#177,#178,#179);
#133=PRE_DEFINED_MARKER('');
#134=COLOUR_RGB('',0.800000011920929,0.800000011920929,0.800000011920929);
#135=DRAUGHTING_PRE_DEFINED_CURVE_FONT('continuous');
#136=COLOUR_RGB('',0.800000011920929,0.800000011920929,0.800000011920929);
#137=AXIS2_PLACEMENT_3D('',#180,#181,#182);
#138=DRAUGHTING_PRE_DEFINED_CURVE_FONT('continuous');
#139=COLOUR_RGB('',0.800000011920929,0.800000011920929,0.800000011920929);
#140=CARTESIAN_POINT('',(0.0,8.0,0.0));
#141=VECTOR('',#183,1.0);
#142=PRE_DEFINED_MARKER('');
#143=COLOUR_RGB('',0.800000011920929,0.800000011920929,0.800000011920929);
#144=SURFACE_SIDE_STYLE('',(#184));
#145=EDGE_LOOP('',(#185,#186));
#146=AXIS2_PLACEMENT_3D('',#187,#188,#189);
#147=PRE_DEFINED_MARKER('');
#148=COLOUR_RGB('',0.800000011920929,0.800000011920929,0.800000011920929);
#149=PRE_DEFINED_MARKER('');
#150=COLOUR_RGB('',0.800000011920929,0.800000011920929,0.800000011920929);
#151=DRAUGHTING_PRE_DEFINED_CURVE_FONT('continuous');
#152=COLOUR_RGB('',0.800000011920929,0.800000011920929,0.800000011920929);
#153=AXIS2_PLACEMENT_3D('',#190,#191,#192);
#154=SURFACE_SIDE_STYLE('',(#193));
#155=EDGE_LOOP('',(#194,#195,#196,#197));
#156=AXIS2_PLACEMENT_3D('',#198,#199,#200);
#157=SURFACE_SIDE_STYLE('',(#201));
#158=SURFACE_SIDE_STYLE('',(#202));
#159=EDGE_LOOP('',(#203,#204));
#160=AXIS2_PLACEMENT_3D('',#205,#206,#207);
#161=DRAUGHTING_PRE_DEFINED_CURVE_FONT('continuous');
#162=COLOUR_RGB('',0.800000011920929,0.800000011920929,0.800000011920929);
#163=CARTESIAN_POINT('',(16.0,8.0,0.0));
#164=VECTOR('',#208,1.0);
#166=SURFACE_STYLE_FILL_AREA(#209);
#167=ORIENTED_EDGE('',*,*,#67,.T.);
#168=ORIENTED_EDGE('',*,*,#59,.T.);
#169=ORIENTED_EDGE('',*,*,#49,.T.);
#170=ORIENTED_EDGE('',*,*,#41,.F.);
#171=CARTESIAN_POINT('',(8.0,8.0,0.0));
#172=DIRECTION('',(-0.0,-0.0,1.0));
#173=DIRECTION('',(1.0,-2.22044604925031E-016,0.0));
#174=CARTESIAN_POINT('',(8.0,8.0,0.0));
#175=DIRECTION('',(0.0,0.0,1.0));
#176=DIRECTION('',(1.0,-2.22044604925031E-016,0.0));
#177=CARTESIAN_POINT('',(8.0,8.0,-5.56));
#178=DIRECTION('',(0.0,0.0,1.0));
#179=DIRECTION('',(-1.0,3.33066907387547E-016,0.0));
#180=CARTESIAN_POINT('',(8.0,8.0,0.0));
#181=DIRECTION('',(0.0,0.0,1.0));
#182=DIRECTION('',(1.0,-2.22044604925031E-016,0.0));
#183=DIRECTION('',(-0.190808995376545,-0.0,0.981627183447664));
#184=SURFACE_STYLE_FILL_AREA(#210);
#185=ORIENTED_EDGE('',*,*,#59,.F.);
#186=ORIENTED_EDGE('',*,*,#43,.F.);
#187=CARTESIAN_POINT('',(8.0,8.0,-5.56));
#188=DIRECTION('',(0.0,0.0,1.0));
#189=DIRECTION('',(1.0,0.0,0.0));
#190=CARTESIAN_POINT('',(8.0,8.0,-5.56));
#191=DIRECTION('',(0.0,0.0,1.0));
#192=DIRECTION('',(-1.0,3.33066907387547E-016,0.0));
#193=SURFACE_STYLE_FILL_AREA(#211);
#194=ORIENTED_EDGE('',*,*,#67,.F.);
#195=ORIENTED_EDGE('',*,*,#47,.F.);
#196=ORIENTED_EDGE('',*,*,#49,.F.);
#197=ORIENTED_EDGE('',*,*,#43,.T.);
#198=CARTESIAN_POINT('',(8.0,8.0,0.0));
#199=DIRECTION('',(-0.0,-0.0,1.0));
#200=DIRECTION('',(1.0,-2.22044604925031E-016,0.0));
#201=SURFACE_STYLE_FILL_AREA(#212);
#202=SURFACE_STYLE_FILL_AREA(#213);
#203=ORIENTED_EDGE('',*,*,#47,.T.);
#204=ORIENTED_EDGE('',*,*,#41,.T.);
#205=CARTESIAN_POINT('',(8.0,8.0,0.0));
#206=DIRECTION('',(0.0,0.0,1.0));
#207=DIRECTION('',(1.0,0.0,0.0));
#208=DIRECTION('',(-0.190808995376545,0.0,-0.981627183447664));
#209=FILL_AREA_STYLE('',(#214));
#210=FILL_AREA_STYLE('',(#215));
#211=FILL_AREA_STYLE('',(#216));
#212=FILL_AREA_STYLE('',(#217));
#213=FILL_AREA_STYLE('',(#218));
#214=FILL_AREA_STYLE_COLOUR('',#219);
#215=FILL_AREA_STYLE_COLOUR('',#220);
#216=FILL_AREA_STYLE_COLOUR('',#221);
#217=FILL_AREA_STYLE_COLOUR('',#222);
#218=FILL_AREA_STYLE_COLOUR('',#223);
#219=COLOUR_RGB('',0.800000011920929,0.800000011920929,0.800000011920929);
#220=COLOUR_RGB('',0.800000011920929,0.800000011920929,0.800000011920929);
#221=COLOUR_RGB('',0.800000011920929,0.800000011920929,0.800000011920929);
#222=COLOUR_RGB('',0.800000011920929,0.800000011920929,0.800000011920929);
#223=COLOUR_RGB('',0.800000011920929,0.800000011920929,0.800000011920929);
#224=AXIS2_PLACEMENT_3D('PCS',#225,#226,#227);
#225=CARTESIAN_POINT('',(0.0,0.0,0.0));
#226=DIRECTION('',(0.0,0.0,1.0));
#227=DIRECTION('',(1.0,0.0,0.0));
#228=AXIS2_PLACEMENT_3D('MCS',#229,#230,#231);
#229=CARTESIAN_POINT('',(8.0,8.0,0.0));
#230=DIRECTION('',(0.0,0.0,1.0));
#231=DIRECTION('',(1.0,0.0,0.0));
#232=CONSTRUCTIVE_GEOMETRY_REPRESENTATION_RELATIONSHIP('coordinate systems',$,#29,#233);
#233=CONSTRUCTIVE_GEOMETRY_REPRESENTATION('coordinate systems',(#224,#228),#6);
ENDSEC;
END-ISO-10303-21;
