ISO-10303-21;
HEADER;
FILE_DESCRIPTION(('no description'),'unknown implementation level');
FILE_NAME('solid_oTrJ50vm_eTNK0eVOEvzu5Dn2Q_1.STP','  ',('CIMSOURCE GmbH'),('CADClick - KiM GmbH - www.kimweb.de'),'unknown preprocess','ACIS','unknown authorization');
FILE_SCHEMA(('automotive_design'));
ENDSEC;
DATA;
#1=MECHANICAL_DESIGN_GEOMETRIC_PRESENTATION_REPRESENTATION(' ',(#10,#11,#12,#13,#14,#15,#16,#17,#18,#19,#20,#21,#22,#23,#24),#6);
#2=PRODUCT_DEFINITION_CONTEXT('',#25,'design');
#3=APPLICATION_PROTOCOL_DEFINITION('INTERNATIONAL STANDARD','automotive_design',1994,#25);
#4=PRODUCT_CATEGORY_RELATIONSHIP('NONE','NONE',#26,#27);
#5=SHAPE_DEFINITION_REPRESENTATION(#28,#29);
#6= (GEOMETRIC_REPRESENTATION_CONTEXT(3)GLOBAL_UNCERTAINTY_ASSIGNED_CONTEXT((#32))GLOBAL_UNIT_ASSIGNED_CONTEXT((#34,#35,#36))REPRESENTATION_CONTEXT('NONE','WORKSPACE'));
#10=STYLED_ITEM('',(#38),#39);
#11=STYLED_ITEM('',(#40),#41);
#12=STYLED_ITEM('',(#42),#43);
#13=STYLED_ITEM('',(#44),#45);
#14=STYLED_ITEM('',(#46),#47);
#15=STYLED_ITEM('',(#48),#49);
#16=STYLED_ITEM('',(#50),#51);
#17=STYLED_ITEM('',(#52),#53);
#18=STYLED_ITEM('',(#54),#55);
#19=STYLED_ITEM('',(#56),#57);
#20=STYLED_ITEM('',(#58),#59);
#21=STYLED_ITEM('',(#60),#61);
#22=STYLED_ITEM('',(#62),#63);
#23=STYLED_ITEM('',(#64),#65);
#24=STYLED_ITEM('',(#66),#67);
#25=APPLICATION_CONTEXT(' ');
#26=PRODUCT_CATEGORY('part','NONE');
#27=PRODUCT_RELATED_PRODUCT_CATEGORY('detail',' ',(#68));
#28=PRODUCT_DEFINITION_SHAPE('NONE','NONE',#69);
#29=ADVANCED_BREP_SHAPE_REPRESENTATION('1',(#61,#70),#6);
#32=UNCERTAINTY_MEASURE_WITH_UNIT(LENGTH_MEASURE(1.0E-006),#34,'','');
#34= (CONVERSION_BASED_UNIT('MILLIMETRE',#73)LENGTH_UNIT()NAMED_UNIT(#76));
#35= (NAMED_UNIT(#78)PLANE_ANGLE_UNIT()SI_UNIT($,.RADIAN.));
#36= (NAMED_UNIT(#78)SOLID_ANGLE_UNIT()SI_UNIT($,.STERADIAN.));
#38=PRESENTATION_STYLE_ASSIGNMENT((#84));
#39=ADVANCED_FACE('',(#85),#86,.T.);
#40=PRESENTATION_STYLE_ASSIGNMENT((#87));
#41=EDGE_CURVE('',#45,#63,#88,.T.);
#42=PRESENTATION_STYLE_ASSIGNMENT((#89));
#43=EDGE_CURVE('',#65,#55,#90,.T.);
#44=PRESENTATION_STYLE_ASSIGNMENT((#91));
#45=VERTEX_POINT('',#92);
#46=PRESENTATION_STYLE_ASSIGNMENT((#93));
#47=ADVANCED_FACE('',(#94),#95,.T.);
#48=PRESENTATION_STYLE_ASSIGNMENT((#96));
#49=ADVANCED_FACE('',(#97),#98,.T.);
#50=PRESENTATION_STYLE_ASSIGNMENT((#99));
#51=EDGE_CURVE('',#65,#45,#100,.T.);
#52=PRESENTATION_STYLE_ASSIGNMENT((#101));
#53=EDGE_CURVE('',#55,#65,#102,.T.);
#54=PRESENTATION_STYLE_ASSIGNMENT((#103));
#55=VERTEX_POINT('',#104);
#56=PRESENTATION_STYLE_ASSIGNMENT((#105));
#57=EDGE_CURVE('',#63,#45,#106,.T.);
#58=PRESENTATION_STYLE_ASSIGNMENT((#107));
#59=ADVANCED_FACE('',(#108),#109,.F.);
#60=PRESENTATION_STYLE_ASSIGNMENT((#110));
#61=MANIFOLD_SOLID_BREP('1',#111);
#62=PRESENTATION_STYLE_ASSIGNMENT((#112));
#63=VERTEX_POINT('',#113);
#64=PRESENTATION_STYLE_ASSIGNMENT((#114));
#65=VERTEX_POINT('',#115);
#66=PRESENTATION_STYLE_ASSIGNMENT((#116));
#67=EDGE_CURVE('',#63,#55,#117,.T.);
#68=PRODUCT('1','1','PART-1-DESC',(#118));
#69=PRODUCT_DEFINITION('NONE','NONE',#119,#2);
#70=AXIS2_PLACEMENT_3D('',#120,#121,#122);
#73=LENGTH_MEASURE_WITH_UNIT(LENGTH_MEASURE(1.0),#123);
#76=DIMENSIONAL_EXPONENTS(1.0,0.0,0.0,0.0,0.0,0.0,0.0);
#78=DIMENSIONAL_EXPONENTS(0.0,0.0,0.0,0.0,0.0,0.0,0.0);
#84=SURFACE_STYLE_USAGE(.BOTH.,#124);
#85=FACE_OUTER_BOUND('',#125,.T.);
#86=CONICAL_SURFACE('',#126,5.0,0.191986217719376);
#87=CURVE_STYLE('',#127,POSITIVE_LENGTH_MEASURE(1.0E-006),#128);
#88=CIRCLE('',#129,5.0);
#89=CURVE_STYLE('',#130,POSITIVE_LENGTH_MEASURE(1.0E-006),#131);
#90=CIRCLE('',#132,4.22831017272326);
#91=POINT_STYLE(' ',#133,POSITIVE_LENGTH_MEASURE(1.0E-006),#134);
#92=CARTESIAN_POINT('',(0.0,5.0,0.0));
#93=SURFACE_STYLE_USAGE(.BOTH.,#135);
#94=FACE_OUTER_BOUND('',#136,.T.);
#95=PLANE('',#137);
#96=SURFACE_STYLE_USAGE(.BOTH.,#138);
#97=FACE_OUTER_BOUND('',#139,.T.);
#98=CONICAL_SURFACE('',#140,5.0,0.191986217719376);
#99=CURVE_STYLE('',#141,POSITIVE_LENGTH_MEASURE(1.0E-006),#142);
#100=LINE('',#143,#144);
#101=CURVE_STYLE('',#145,POSITIVE_LENGTH_MEASURE(1.0E-006),#146);
#102=CIRCLE('',#147,4.22831017272326);
#103=POINT_STYLE(' ',#148,POSITIVE_LENGTH_MEASURE(1.0E-006),#149);
#104=CARTESIAN_POINT('',(9.22831017272326,5.0,-3.97));
#105=CURVE_STYLE('',#150,POSITIVE_LENGTH_MEASURE(1.0E-006),#151);
#106=CIRCLE('',#152,5.0);
#107=SURFACE_STYLE_USAGE(.BOTH.,#153);
#108=FACE_OUTER_BOUND('',#154,.T.);
#109=PLANE('',#155);
#110=SURFACE_STYLE_USAGE(.BOTH.,#156);
#111=CLOSED_SHELL('',(#39,#49,#59,#47));
#112=POINT_STYLE(' ',#157,POSITIVE_LENGTH_MEASURE(1.0E-006),#158);
#113=CARTESIAN_POINT('',(10.0,5.0,0.0));
#114=POINT_STYLE(' ',#159,POSITIVE_LENGTH_MEASURE(1.0E-006),#160);
#115=CARTESIAN_POINT('',(0.771689827276743,5.0,-3.97));
#116=CURVE_STYLE('',#161,POSITIVE_LENGTH_MEASURE(1.0E-006),#162);
#117=LINE('',#163,#164);
#118=PRODUCT_CONTEXT('',#25,'mechanical');
#119=PRODUCT_DEFINITION_FORMATION_WITH_SPECIFIED_SOURCE(' ','NONE',#68,.NOT_KNOWN.);
#120=CARTESIAN_POINT('',(0.0,0.0,0.0));
#121=DIRECTION('',(0.0,0.0,1.0));
#122=DIRECTION('',(1.0,0.0,0.0));
#123= (NAMED_UNIT(#76)LENGTH_UNIT()SI_UNIT(.MILLI.,.METRE.));
#124=SURFACE_SIDE_STYLE('',(#166));
#125=EDGE_LOOP('',(#167,#168,#169,#170));
#126=AXIS2_PLACEMENT_3D('',#171,#172,#173);
#127=DRAUGHTING_PRE_DEFINED_CURVE_FONT('continuous');
#128=COLOUR_RGB('',0.800000011920929,0.800000011920929,0.800000011920929);
#129=AXIS2_PLACEMENT_3D('',#174,#175,#176);
#130=DRAUGHTING_PRE_DEFINED_CURVE_FONT('continuous');
#131=COLOUR_RGB('',0.800000011920929,0.800000011920929,0.800000011920929);
#132=AXIS2_PLACEMENT_3D('',#177,#178,#179);
#133=PRE_DEFINED_MARKER('');
#134=COLOUR_RGB('',0.800000011920929,0.800000011920929,0.800000011920929);
#135=SURFACE_SIDE_STYLE('',(#180));
#136=EDGE_LOOP('',(#181,#182));
#137=AXIS2_PLACEMENT_3D('',#183,#184,#185);
#138=SURFACE_SIDE_STYLE('',(#186));
#139=EDGE_LOOP('',(#187,#188,#189,#190));
#140=AXIS2_PLACEMENT_3D('',#191,#192,#193);
#141=DRAUGHTING_PRE_DEFINED_CURVE_FONT('continuous');
#142=COLOUR_RGB('',0.800000011920929,0.800000011920929,0.800000011920929);
#143=CARTESIAN_POINT('',(8.88178419700125E-016,5.0,0.0));
#144=VECTOR('',#194,1.0);
#145=DRAUGHTING_PRE_DEFINED_CURVE_FONT('continuous');
#146=COLOUR_RGB('',0.800000011920929,0.800000011920929,0.800000011920929);
#147=AXIS2_PLACEMENT_3D('',#195,#196,#197);
#148=PRE_DEFINED_MARKER('');
#149=COLOUR_RGB('',0.800000011920929,0.800000011920929,0.800000011920929);
#150=DRAUGHTING_PRE_DEFINED_CURVE_FONT('continuous');
#151=COLOUR_RGB('',0.800000011920929,0.800000011920929,0.800000011920929);
#152=AXIS2_PLACEMENT_3D('',#198,#199,#200);
#153=SURFACE_SIDE_STYLE('',(#201));
#154=EDGE_LOOP('',(#202,#203));
#155=AXIS2_PLACEMENT_3D('',#204,#205,#206);
#156=SURFACE_SIDE_STYLE('',(#207));
#157=PRE_DEFINED_MARKER('');
#158=COLOUR_RGB('',0.800000011920929,0.800000011920929,0.800000011920929);
#159=PRE_DEFINED_MARKER('');
#160=COLOUR_RGB('',0.800000011920929,0.800000011920929,0.800000011920929);
#161=DRAUGHTING_PRE_DEFINED_CURVE_FONT('continuous');
#162=COLOUR_RGB('',0.800000011920929,0.800000011920929,0.800000011920929);
#163=CARTESIAN_POINT('',(10.0,5.0,0.0));
#164=VECTOR('',#208,1.0);
#166=SURFACE_STYLE_FILL_AREA(#209);
#167=ORIENTED_EDGE('',*,*,#67,.F.);
#168=ORIENTED_EDGE('',*,*,#41,.F.);
#169=ORIENTED_EDGE('',*,*,#51,.F.);
#170=ORIENTED_EDGE('',*,*,#43,.T.);
#171=CARTESIAN_POINT('',(5.0,5.0,0.0));
#172=DIRECTION('',(-0.0,-0.0,1.0));
#173=DIRECTION('',(1.0,0.0,0.0));
#174=CARTESIAN_POINT('',(5.0,5.0,0.0));
#175=DIRECTION('',(0.0,0.0,1.0));
#176=DIRECTION('',(1.0,0.0,0.0));
#177=CARTESIAN_POINT('',(5.0,5.0,-3.97));
#178=DIRECTION('',(0.0,0.0,1.0));
#179=DIRECTION('',(-1.0,5.32907051820075E-016,0.0));
#180=SURFACE_STYLE_FILL_AREA(#210);
#181=ORIENTED_EDGE('',*,*,#41,.T.);
#182=ORIENTED_EDGE('',*,*,#57,.T.);
#183=CARTESIAN_POINT('',(5.0,5.0,0.0));
#184=DIRECTION('',(0.0,0.0,1.0));
#185=DIRECTION('',(1.0,0.0,0.0));
#186=SURFACE_STYLE_FILL_AREA(#211);
#187=ORIENTED_EDGE('',*,*,#67,.T.);
#188=ORIENTED_EDGE('',*,*,#53,.T.);
#189=ORIENTED_EDGE('',*,*,#51,.T.);
#190=ORIENTED_EDGE('',*,*,#57,.F.);
#191=CARTESIAN_POINT('',(5.0,5.0,0.0));
#192=DIRECTION('',(-0.0,-0.0,1.0));
#193=DIRECTION('',(1.0,0.0,0.0));
#194=DIRECTION('',(-0.190808995376545,-3.38944863956216E-017,0.981627183447664));
#195=CARTESIAN_POINT('',(5.0,5.0,-3.97));
#196=DIRECTION('',(0.0,0.0,1.0));
#197=DIRECTION('',(-1.0,5.32907051820075E-016,0.0));
#198=CARTESIAN_POINT('',(5.0,5.0,0.0));
#199=DIRECTION('',(0.0,0.0,1.0));
#200=DIRECTION('',(1.0,0.0,0.0));
#201=SURFACE_STYLE_FILL_AREA(#212);
#202=ORIENTED_EDGE('',*,*,#53,.F.);
#203=ORIENTED_EDGE('',*,*,#43,.F.);
#204=CARTESIAN_POINT('',(5.0,5.0,-3.97));
#205=DIRECTION('',(0.0,0.0,1.0));
#206=DIRECTION('',(1.0,0.0,0.0));
#207=SURFACE_STYLE_FILL_AREA(#213);
#208=DIRECTION('',(-0.190808995376545,-3.38944863956216E-017,-0.981627183447664));
#209=FILL_AREA_STYLE('',(#214));
#210=FILL_AREA_STYLE('',(#215));
#211=FILL_AREA_STYLE('',(#216));
#212=FILL_AREA_STYLE('',(#217));
#213=FILL_AREA_STYLE('',(#218));
#214=FILL_AREA_STYLE_COLOUR('',#219);
#215=FILL_AREA_STYLE_COLOUR('',#220);
#216=FILL_AREA_STYLE_COLOUR('',#221);
#217=FILL_AREA_STYLE_COLOUR('',#222);
#218=FILL_AREA_STYLE_COLOUR('',#223);
#219=COLOUR_RGB('',0.800000011920929,0.800000011920929,0.800000011920929);
#220=COLOUR_RGB('',0.800000011920929,0.800000011920929,0.800000011920929);
#221=COLOUR_RGB('',0.800000011920929,0.800000011920929,0.800000011920929);
#222=COLOUR_RGB('',0.800000011920929,0.800000011920929,0.800000011920929);
#223=COLOUR_RGB('',0.800000011920929,0.800000011920929,0.800000011920929);
#224=AXIS2_PLACEMENT_3D('PCS',#225,#226,#227);
#225=CARTESIAN_POINT('',(0.0,0.0,0.0));
#226=DIRECTION('',(0.0,0.0,1.0));
#227=DIRECTION('',(1.0,0.0,0.0));
#228=AXIS2_PLACEMENT_3D('MCS',#229,#230,#231);
#229=CARTESIAN_POINT('',(5.0,5.0,0.0));
#230=DIRECTION('',(0.0,0.0,1.0));
#231=DIRECTION('',(1.0,0.0,0.0));
#232=CONSTRUCTIVE_GEOMETRY_REPRESENTATION_RELATIONSHIP('coordinate systems',$,#29,#233);
#233=CONSTRUCTIVE_GEOMETRY_REPRESENTATION('coordinate systems',(#224,#228),#6);
ENDSEC;
END-ISO-10303-21;
