ISO-10303-21;
HEADER;
FILE_DESCRIPTION(('no description'),'unknown implementation level');
FILE_NAME('solidl_ot4H4lpidP21XKYMXlbIFBATs_1.STP','  ',('CIMSOURCE GmbH'),('CADClick - KiM GmbH - www.kimweb.de'),'unknown preprocess','ACIS','unknown authorization');
FILE_SCHEMA(('automotive_design'));
ENDSEC;
DATA;
#1=MECHANICAL_DESIGN_GEOMETRIC_PRESENTATION_REPRESENTATION(' ',(#10,#11,#12,#13,#14,#15,#16,#17,#18,#19,#20,#21,#22,#23,#24),#6);
#2=PRODUCT_DEFINITION_CONTEXT('',#25,'design');
#3=APPLICATION_PROTOCOL_DEFINITION('INTERNATIONAL STANDARD','automotive_design',1994,#25);
#4=PRODUCT_CATEGORY_RELATIONSHIP('NONE','NONE',#26,#27);
#5=SHAPE_DEFINITION_REPRESENTATION(#28,#29);
#6= (GEOMETRIC_REPRESENTATION_CONTEXT(3)GLOBAL_UNCERTAINTY_ASSIGNED_CONTEXT((#32))GLOBAL_UNIT_ASSIGNED_CONTEXT((#34,#35,#36))REPRESENTATION_CONTEXT('NONE','WORKSPACE'));
#10=STYLED_ITEM('',(#38),#39);
#11=STYLED_ITEM('',(#40),#41);
#12=STYLED_ITEM('',(#42),#43);
#13=STYLED_ITEM('',(#44),#45);
#14=STYLED_ITEM('',(#46),#47);
#15=STYLED_ITEM('',(#48),#49);
#16=STYLED_ITEM('',(#50),#51);
#17=STYLED_ITEM('',(#52),#53);
#18=STYLED_ITEM('',(#54),#55);
#19=STYLED_ITEM('',(#56),#57);
#20=STYLED_ITEM('',(#58),#59);
#21=STYLED_ITEM('',(#60),#61);
#22=STYLED_ITEM('',(#62),#63);
#23=STYLED_ITEM('',(#64),#65);
#24=STYLED_ITEM('',(#66),#67);
#25=APPLICATION_CONTEXT(' ');
#26=PRODUCT_CATEGORY('part','NONE');
#27=PRODUCT_RELATED_PRODUCT_CATEGORY('detail',' ',(#68));
#28=PRODUCT_DEFINITION_SHAPE('NONE','NONE',#69);
#29=ADVANCED_BREP_SHAPE_REPRESENTATION('1',(#53,#70),#6);
#32=UNCERTAINTY_MEASURE_WITH_UNIT(LENGTH_MEASURE(1.0E-006),#34,'','');
#34= (CONVERSION_BASED_UNIT('MILLIMETRE',#73)LENGTH_UNIT()NAMED_UNIT(#76));
#35= (NAMED_UNIT(#78)PLANE_ANGLE_UNIT()SI_UNIT($,.RADIAN.));
#36= (NAMED_UNIT(#78)SOLID_ANGLE_UNIT()SI_UNIT($,.STERADIAN.));
#38=PRESENTATION_STYLE_ASSIGNMENT((#84));
#39=VERTEX_POINT('',#85);
#40=PRESENTATION_STYLE_ASSIGNMENT((#86));
#41=EDGE_CURVE('',#63,#67,#87,.T.);
#42=PRESENTATION_STYLE_ASSIGNMENT((#88));
#43=ADVANCED_FACE('',(#89),#90,.T.);
#44=PRESENTATION_STYLE_ASSIGNMENT((#91));
#45=ADVANCED_FACE('',(#92),#93,.F.);
#46=PRESENTATION_STYLE_ASSIGNMENT((#94));
#47=ADVANCED_FACE('',(#95),#96,.T.);
#48=PRESENTATION_STYLE_ASSIGNMENT((#97));
#49=EDGE_CURVE('',#67,#63,#98,.T.);
#50=PRESENTATION_STYLE_ASSIGNMENT((#99));
#51=ADVANCED_FACE('',(#100),#101,.T.);
#52=PRESENTATION_STYLE_ASSIGNMENT((#102));
#53=MANIFOLD_SOLID_BREP('1',#103);
#54=PRESENTATION_STYLE_ASSIGNMENT((#104));
#55=VERTEX_POINT('',#105);
#56=PRESENTATION_STYLE_ASSIGNMENT((#106));
#57=EDGE_CURVE('',#39,#55,#107,.T.);
#58=PRESENTATION_STYLE_ASSIGNMENT((#108));
#59=EDGE_CURVE('',#55,#39,#109,.T.);
#60=PRESENTATION_STYLE_ASSIGNMENT((#110));
#61=EDGE_CURVE('',#67,#39,#111,.T.);
#62=PRESENTATION_STYLE_ASSIGNMENT((#112));
#63=VERTEX_POINT('',#113);
#64=PRESENTATION_STYLE_ASSIGNMENT((#114));
#65=EDGE_CURVE('',#55,#63,#115,.T.);
#66=PRESENTATION_STYLE_ASSIGNMENT((#116));
#67=VERTEX_POINT('',#117);
#68=PRODUCT('1','1','PART-1-DESC',(#118));
#69=PRODUCT_DEFINITION('NONE','NONE',#119,#2);
#70=AXIS2_PLACEMENT_3D('',#120,#121,#122);
#73=LENGTH_MEASURE_WITH_UNIT(LENGTH_MEASURE(1.0),#123);
#76=DIMENSIONAL_EXPONENTS(1.0,0.0,0.0,0.0,0.0,0.0,0.0);
#78=DIMENSIONAL_EXPONENTS(0.0,0.0,0.0,0.0,0.0,0.0,0.0);
#84=POINT_STYLE(' ',#124,POSITIVE_LENGTH_MEASURE(1.0E-006),#125);
#85=CARTESIAN_POINT('',(3.5527136788005E-015,6.00000000000001,0.0));
#86=CURVE_STYLE('',#126,POSITIVE_LENGTH_MEASURE(1.0E-006),#127);
#87=CIRCLE('',#128,5.07474972850446);
#88=SURFACE_STYLE_USAGE(.BOTH.,#129);
#89=FACE_OUTER_BOUND('',#130,.T.);
#90=CONICAL_SURFACE('',#131,6.0,0.191986217719376);
#91=SURFACE_STYLE_USAGE(.BOTH.,#132);
#92=FACE_OUTER_BOUND('',#133,.T.);
#93=PLANE('',#134);
#94=SURFACE_STYLE_USAGE(.BOTH.,#135);
#95=FACE_OUTER_BOUND('',#136,.T.);
#96=PLANE('',#137);
#97=CURVE_STYLE('',#138,POSITIVE_LENGTH_MEASURE(1.0E-006),#139);
#98=CIRCLE('',#140,5.07474972850446);
#99=SURFACE_STYLE_USAGE(.BOTH.,#141);
#100=FACE_OUTER_BOUND('',#142,.T.);
#101=CONICAL_SURFACE('',#143,6.0,0.191986217719376);
#102=SURFACE_STYLE_USAGE(.BOTH.,#144);
#103=CLOSED_SHELL('',(#43,#51,#45,#47));
#104=POINT_STYLE(' ',#145,POSITIVE_LENGTH_MEASURE(1.0E-006),#146);
#105=CARTESIAN_POINT('',(12.0,6.0,0.0));
#106=CURVE_STYLE('',#147,POSITIVE_LENGTH_MEASURE(1.0E-006),#148);
#107=CIRCLE('',#149,6.0);
#108=CURVE_STYLE('',#150,POSITIVE_LENGTH_MEASURE(1.0E-006),#151);
#109=CIRCLE('',#152,6.0);
#110=CURVE_STYLE('',#153,POSITIVE_LENGTH_MEASURE(1.0E-006),#154);
#111=LINE('',#155,#156);
#112=POINT_STYLE(' ',#157,POSITIVE_LENGTH_MEASURE(1.0E-006),#158);
#113=CARTESIAN_POINT('',(11.0747497285045,6.0,-4.76));
#114=CURVE_STYLE('',#159,POSITIVE_LENGTH_MEASURE(1.0E-006),#160);
#115=LINE('',#161,#162);
#116=POINT_STYLE(' ',#163,POSITIVE_LENGTH_MEASURE(1.0E-006),#164);
#117=CARTESIAN_POINT('',(0.92525027149554,6.0,-4.76));
#118=PRODUCT_CONTEXT('',#25,'mechanical');
#119=PRODUCT_DEFINITION_FORMATION_WITH_SPECIFIED_SOURCE(' ','NONE',#68,.NOT_KNOWN.);
#120=CARTESIAN_POINT('',(0.0,0.0,0.0));
#121=DIRECTION('',(0.0,0.0,1.0));
#122=DIRECTION('',(1.0,0.0,0.0));
#123= (NAMED_UNIT(#76)LENGTH_UNIT()SI_UNIT(.MILLI.,.METRE.));
#124=PRE_DEFINED_MARKER('');
#125=COLOUR_RGB('',0.800000011920929,0.800000011920929,0.800000011920929);
#126=DRAUGHTING_PRE_DEFINED_CURVE_FONT('continuous');
#127=COLOUR_RGB('',0.800000011920929,0.800000011920929,0.800000011920929);
#128=AXIS2_PLACEMENT_3D('',#166,#167,#168);
#129=SURFACE_SIDE_STYLE('',(#169));
#130=EDGE_LOOP('',(#170,#171,#172,#173));
#131=AXIS2_PLACEMENT_3D('',#174,#175,#176);
#132=SURFACE_SIDE_STYLE('',(#177));
#133=EDGE_LOOP('',(#178,#179));
#134=AXIS2_PLACEMENT_3D('',#180,#181,#182);
#135=SURFACE_SIDE_STYLE('',(#183));
#136=EDGE_LOOP('',(#184,#185));
#137=AXIS2_PLACEMENT_3D('',#186,#187,#188);
#138=DRAUGHTING_PRE_DEFINED_CURVE_FONT('continuous');
#139=COLOUR_RGB('',0.800000011920929,0.800000011920929,0.800000011920929);
#140=AXIS2_PLACEMENT_3D('',#189,#190,#191);
#141=SURFACE_SIDE_STYLE('',(#192));
#142=EDGE_LOOP('',(#193,#194,#195,#196));
#143=AXIS2_PLACEMENT_3D('',#197,#198,#199);
#144=SURFACE_SIDE_STYLE('',(#200));
#145=PRE_DEFINED_MARKER('');
#146=COLOUR_RGB('',0.800000011920929,0.800000011920929,0.800000011920929);
#147=DRAUGHTING_PRE_DEFINED_CURVE_FONT('continuous');
#148=COLOUR_RGB('',0.800000011920929,0.800000011920929,0.800000011920929);
#149=AXIS2_PLACEMENT_3D('',#201,#202,#203);
#150=DRAUGHTING_PRE_DEFINED_CURVE_FONT('continuous');
#151=COLOUR_RGB('',0.800000011920929,0.800000011920929,0.800000011920929);
#152=AXIS2_PLACEMENT_3D('',#204,#205,#206);
#153=DRAUGHTING_PRE_DEFINED_CURVE_FONT('continuous');
#154=COLOUR_RGB('',0.800000011920929,0.800000011920929,0.800000011920929);
#155=CARTESIAN_POINT('',(4.44089209850063E-015,6.0,0.0));
#156=VECTOR('',#207,1.0);
#157=PRE_DEFINED_MARKER('');
#158=COLOUR_RGB('',0.800000011920929,0.800000011920929,0.800000011920929);
#159=DRAUGHTING_PRE_DEFINED_CURVE_FONT('continuous');
#160=COLOUR_RGB('',0.800000011920929,0.800000011920929,0.800000011920929);
#161=CARTESIAN_POINT('',(12.0,6.0,0.0));
#162=VECTOR('',#208,1.0);
#163=PRE_DEFINED_MARKER('');
#164=COLOUR_RGB('',0.800000011920929,0.800000011920929,0.800000011920929);
#166=CARTESIAN_POINT('',(6.0,6.0,-4.76));
#167=DIRECTION('',(0.0,0.0,1.0));
#168=DIRECTION('',(-1.0,1.48029736616688E-016,0.0));
#169=SURFACE_STYLE_FILL_AREA(#209);
#170=ORIENTED_EDGE('',*,*,#65,.F.);
#171=ORIENTED_EDGE('',*,*,#57,.F.);
#172=ORIENTED_EDGE('',*,*,#61,.F.);
#173=ORIENTED_EDGE('',*,*,#49,.T.);
#174=CARTESIAN_POINT('',(6.0,6.0,0.0));
#175=DIRECTION('',(-0.0,-0.0,1.0));
#176=DIRECTION('',(1.0,-4.44089209850063E-016,0.0));
#177=SURFACE_STYLE_FILL_AREA(#210);
#178=ORIENTED_EDGE('',*,*,#41,.F.);
#179=ORIENTED_EDGE('',*,*,#49,.F.);
#180=CARTESIAN_POINT('',(6.0,6.0,-4.76));
#181=DIRECTION('',(0.0,0.0,1.0));
#182=DIRECTION('',(1.0,0.0,0.0));
#183=SURFACE_STYLE_FILL_AREA(#211);
#184=ORIENTED_EDGE('',*,*,#57,.T.);
#185=ORIENTED_EDGE('',*,*,#59,.T.);
#186=CARTESIAN_POINT('',(6.0,6.0,0.0));
#187=DIRECTION('',(0.0,0.0,1.0));
#188=DIRECTION('',(1.0,0.0,0.0));
#189=CARTESIAN_POINT('',(6.0,6.0,-4.76));
#190=DIRECTION('',(0.0,0.0,1.0));
#191=DIRECTION('',(-1.0,1.48029736616688E-016,0.0));
#192=SURFACE_STYLE_FILL_AREA(#212);
#193=ORIENTED_EDGE('',*,*,#65,.T.);
#194=ORIENTED_EDGE('',*,*,#41,.T.);
#195=ORIENTED_EDGE('',*,*,#61,.T.);
#196=ORIENTED_EDGE('',*,*,#59,.F.);
#197=CARTESIAN_POINT('',(6.0,6.0,0.0));
#198=DIRECTION('',(-0.0,-0.0,1.0));
#199=DIRECTION('',(1.0,-4.44089209850063E-016,0.0));
#200=SURFACE_STYLE_FILL_AREA(#213);
#201=CARTESIAN_POINT('',(6.0,6.0,0.0));
#202=DIRECTION('',(0.0,0.0,1.0));
#203=DIRECTION('',(1.0,-4.44089209850063E-016,0.0));
#204=CARTESIAN_POINT('',(6.0,6.0,0.0));
#205=DIRECTION('',(0.0,0.0,1.0));
#206=DIRECTION('',(1.0,-4.44089209850063E-016,0.0));
#207=DIRECTION('',(-0.190808995376545,5.64908106593693E-017,0.981627183447664));
#208=DIRECTION('',(-0.190808995376545,5.64908106593693E-017,-0.981627183447664));
#209=FILL_AREA_STYLE('',(#214));
#210=FILL_AREA_STYLE('',(#215));
#211=FILL_AREA_STYLE('',(#216));
#212=FILL_AREA_STYLE('',(#217));
#213=FILL_AREA_STYLE('',(#218));
#214=FILL_AREA_STYLE_COLOUR('',#219);
#215=FILL_AREA_STYLE_COLOUR('',#220);
#216=FILL_AREA_STYLE_COLOUR('',#221);
#217=FILL_AREA_STYLE_COLOUR('',#222);
#218=FILL_AREA_STYLE_COLOUR('',#223);
#219=COLOUR_RGB('',0.800000011920929,0.800000011920929,0.800000011920929);
#220=COLOUR_RGB('',0.800000011920929,0.800000011920929,0.800000011920929);
#221=COLOUR_RGB('',0.800000011920929,0.800000011920929,0.800000011920929);
#222=COLOUR_RGB('',0.800000011920929,0.800000011920929,0.800000011920929);
#223=COLOUR_RGB('',0.800000011920929,0.800000011920929,0.800000011920929);
#224=AXIS2_PLACEMENT_3D('PCS',#225,#226,#227);
#225=CARTESIAN_POINT('',(0.0,0.0,0.0));
#226=DIRECTION('',(0.0,0.0,1.0));
#227=DIRECTION('',(1.0,0.0,0.0));
#228=AXIS2_PLACEMENT_3D('MCS',#229,#230,#231);
#229=CARTESIAN_POINT('',(6.0,6.0,0.0));
#230=DIRECTION('',(0.0,0.0,1.0));
#231=DIRECTION('',(1.0,0.0,0.0));
#232=CONSTRUCTIVE_GEOMETRY_REPRESENTATION_RELATIONSHIP('coordinate systems',$,#29,#233);
#233=CONSTRUCTIVE_GEOMETRY_REPRESENTATION('coordinate systems',(#224,#228),#6);
ENDSEC;
END-ISO-10303-21;
