ISO-10303-21;
HEADER;
FILE_DESCRIPTION(('no description'),'unknown implementation level');
FILE_NAME('soliddt6t_3VeFlzJMEv2pD2rY5TqyHc_1.STP','  ',('CIMSOURCE GmbH'),('CADClick - KiM GmbH - www.kimweb.de'),'unknown preprocess','ACIS','unknown authorization');
FILE_SCHEMA(('automotive_design'));
ENDSEC;
DATA;
#1=MECHANICAL_DESIGN_GEOMETRIC_PRESENTATION_REPRESENTATION(' ',(#10,#11,#12,#13,#14,#15,#16,#17,#18,#19,#20,#21,#22,#23,#24),#6);
#2=PRODUCT_DEFINITION_CONTEXT('',#25,'design');
#3=APPLICATION_PROTOCOL_DEFINITION('INTERNATIONAL STANDARD','automotive_design',1994,#25);
#4=PRODUCT_CATEGORY_RELATIONSHIP('NONE','NONE',#26,#27);
#5=SHAPE_DEFINITION_REPRESENTATION(#28,#29);
#6= (GEOMETRIC_REPRESENTATION_CONTEXT(3)GLOBAL_UNCERTAINTY_ASSIGNED_CONTEXT((#32))GLOBAL_UNIT_ASSIGNED_CONTEXT((#34,#35,#36))REPRESENTATION_CONTEXT('NONE','WORKSPACE'));
#10=STYLED_ITEM('',(#38),#39);
#11=STYLED_ITEM('',(#40),#41);
#12=STYLED_ITEM('',(#42),#43);
#13=STYLED_ITEM('',(#44),#45);
#14=STYLED_ITEM('',(#46),#47);
#15=STYLED_ITEM('',(#48),#49);
#16=STYLED_ITEM('',(#50),#51);
#17=STYLED_ITEM('',(#52),#53);
#18=STYLED_ITEM('',(#54),#55);
#19=STYLED_ITEM('',(#56),#57);
#20=STYLED_ITEM('',(#58),#59);
#21=STYLED_ITEM('',(#60),#61);
#22=STYLED_ITEM('',(#62),#63);
#23=STYLED_ITEM('',(#64),#65);
#24=STYLED_ITEM('',(#66),#67);
#25=APPLICATION_CONTEXT(' ');
#26=PRODUCT_CATEGORY('part','NONE');
#27=PRODUCT_RELATED_PRODUCT_CATEGORY('detail',' ',(#68));
#28=PRODUCT_DEFINITION_SHAPE('NONE','NONE',#69);
#29=ADVANCED_BREP_SHAPE_REPRESENTATION('1',(#41,#70),#6);
#32=UNCERTAINTY_MEASURE_WITH_UNIT(LENGTH_MEASURE(1.0E-006),#34,'','');
#34= (CONVERSION_BASED_UNIT('MILLIMETRE',#73)LENGTH_UNIT()NAMED_UNIT(#76));
#35= (NAMED_UNIT(#78)PLANE_ANGLE_UNIT()SI_UNIT($,.RADIAN.));
#36= (NAMED_UNIT(#78)SOLID_ANGLE_UNIT()SI_UNIT($,.STERADIAN.));
#38=PRESENTATION_STYLE_ASSIGNMENT((#84));
#39=VERTEX_POINT('',#85);
#40=PRESENTATION_STYLE_ASSIGNMENT((#86));
#41=MANIFOLD_SOLID_BREP('1',#87);
#42=PRESENTATION_STYLE_ASSIGNMENT((#88));
#43=EDGE_CURVE('',#51,#65,#89,.T.);
#44=PRESENTATION_STYLE_ASSIGNMENT((#90));
#45=ADVANCED_FACE('',(#91),#92,.T.);
#46=PRESENTATION_STYLE_ASSIGNMENT((#93));
#47=EDGE_CURVE('',#65,#51,#94,.T.);
#48=PRESENTATION_STYLE_ASSIGNMENT((#95));
#49=ADVANCED_FACE('',(#96),#97,.T.);
#50=PRESENTATION_STYLE_ASSIGNMENT((#98));
#51=VERTEX_POINT('',#99);
#52=PRESENTATION_STYLE_ASSIGNMENT((#100));
#53=EDGE_CURVE('',#39,#65,#101,.T.);
#54=PRESENTATION_STYLE_ASSIGNMENT((#102));
#55=VERTEX_POINT('',#103);
#56=PRESENTATION_STYLE_ASSIGNMENT((#104));
#57=ADVANCED_FACE('',(#105),#106,.T.);
#58=PRESENTATION_STYLE_ASSIGNMENT((#107));
#59=ADVANCED_FACE('',(#108),#109,.F.);
#60=PRESENTATION_STYLE_ASSIGNMENT((#110));
#61=EDGE_CURVE('',#39,#55,#111,.T.);
#62=PRESENTATION_STYLE_ASSIGNMENT((#112));
#63=EDGE_CURVE('',#51,#55,#113,.T.);
#64=PRESENTATION_STYLE_ASSIGNMENT((#114));
#65=VERTEX_POINT('',#115);
#66=PRESENTATION_STYLE_ASSIGNMENT((#116));
#67=EDGE_CURVE('',#55,#39,#117,.T.);
#68=PRODUCT('1','1','PART-1-DESC',(#118));
#69=PRODUCT_DEFINITION('NONE','NONE',#119,#2);
#70=AXIS2_PLACEMENT_3D('',#120,#121,#122);
#73=LENGTH_MEASURE_WITH_UNIT(LENGTH_MEASURE(1.0),#123);
#76=DIMENSIONAL_EXPONENTS(1.0,0.0,0.0,0.0,0.0,0.0,0.0);
#78=DIMENSIONAL_EXPONENTS(0.0,0.0,0.0,0.0,0.0,0.0,0.0);
#84=POINT_STYLE(' ',#124,POSITIVE_LENGTH_MEASURE(1.0E-006),#125);
#85=CARTESIAN_POINT('',(16.0,8.0,0.0));
#86=SURFACE_STYLE_USAGE(.BOTH.,#126);
#87=CLOSED_SHELL('',(#57,#45,#59,#49));
#88=CURVE_STYLE('',#127,POSITIVE_LENGTH_MEASURE(1.0E-006),#128);
#89=CIRCLE('',#129,6.91924548119429);
#90=SURFACE_STYLE_USAGE(.BOTH.,#130);
#91=FACE_OUTER_BOUND('',#131,.T.);
#92=CONICAL_SURFACE('',#132,8.0,0.191986217719376);
#93=CURVE_STYLE('',#133,POSITIVE_LENGTH_MEASURE(1.0E-006),#134);
#94=CIRCLE('',#135,6.91924548119429);
#95=SURFACE_STYLE_USAGE(.BOTH.,#136);
#96=FACE_OUTER_BOUND('',#137,.T.);
#97=PLANE('',#138);
#98=POINT_STYLE(' ',#139,POSITIVE_LENGTH_MEASURE(1.0E-006),#140);
#99=CARTESIAN_POINT('',(1.08075451880571,8.0,-5.56));
#100=CURVE_STYLE('',#141,POSITIVE_LENGTH_MEASURE(1.0E-006),#142);
#101=LINE('',#143,#144);
#102=POINT_STYLE(' ',#145,POSITIVE_LENGTH_MEASURE(1.0E-006),#146);
#103=CARTESIAN_POINT('',(2.17533787218538E-031,8.00000000000001,0.0));
#104=SURFACE_STYLE_USAGE(.BOTH.,#147);
#105=FACE_OUTER_BOUND('',#148,.T.);
#106=CONICAL_SURFACE('',#149,8.0,0.191986217719376);
#107=SURFACE_STYLE_USAGE(.BOTH.,#150);
#108=FACE_OUTER_BOUND('',#151,.T.);
#109=PLANE('',#152);
#110=CURVE_STYLE('',#153,POSITIVE_LENGTH_MEASURE(1.0E-006),#154);
#111=CIRCLE('',#155,8.0);
#112=CURVE_STYLE('',#156,POSITIVE_LENGTH_MEASURE(1.0E-006),#157);
#113=LINE('',#158,#159);
#114=POINT_STYLE(' ',#160,POSITIVE_LENGTH_MEASURE(1.0E-006),#161);
#115=CARTESIAN_POINT('',(14.9192454811943,8.0,-5.56));
#116=CURVE_STYLE('',#162,POSITIVE_LENGTH_MEASURE(1.0E-006),#163);
#117=CIRCLE('',#164,8.0);
#118=PRODUCT_CONTEXT('',#25,'mechanical');
#119=PRODUCT_DEFINITION_FORMATION_WITH_SPECIFIED_SOURCE(' ','NONE',#68,.NOT_KNOWN.);
#120=CARTESIAN_POINT('',(0.0,0.0,0.0));
#121=DIRECTION('',(0.0,0.0,1.0));
#122=DIRECTION('',(1.0,0.0,0.0));
#123= (NAMED_UNIT(#76)LENGTH_UNIT()SI_UNIT(.MILLI.,.METRE.));
#124=PRE_DEFINED_MARKER('');
#125=COLOUR_RGB('',0.800000011920929,0.800000011920929,0.800000011920929);
#126=SURFACE_SIDE_STYLE('',(#166));
#127=DRAUGHTING_PRE_DEFINED_CURVE_FONT('continuous');
#128=COLOUR_RGB('',0.800000011920929,0.800000011920929,0.800000011920929);
#129=AXIS2_PLACEMENT_3D('',#167,#168,#169);
#130=SURFACE_SIDE_STYLE('',(#170));
#131=EDGE_LOOP('',(#171,#172,#173,#174));
#132=AXIS2_PLACEMENT_3D('',#175,#176,#177);
#133=DRAUGHTING_PRE_DEFINED_CURVE_FONT('continuous');
#134=COLOUR_RGB('',0.800000011920929,0.800000011920929,0.800000011920929);
#135=AXIS2_PLACEMENT_3D('',#178,#179,#180);
#136=SURFACE_SIDE_STYLE('',(#181));
#137=EDGE_LOOP('',(#182,#183));
#138=AXIS2_PLACEMENT_3D('',#184,#185,#186);
#139=PRE_DEFINED_MARKER('');
#140=COLOUR_RGB('',0.800000011920929,0.800000011920929,0.800000011920929);
#141=DRAUGHTING_PRE_DEFINED_CURVE_FONT('continuous');
#142=COLOUR_RGB('',0.800000011920929,0.800000011920929,0.800000011920929);
#143=CARTESIAN_POINT('',(16.0,8.0,0.0));
#144=VECTOR('',#187,1.0);
#145=PRE_DEFINED_MARKER('');
#146=COLOUR_RGB('',0.800000011920929,0.800000011920929,0.800000011920929);
#147=SURFACE_SIDE_STYLE('',(#188));
#148=EDGE_LOOP('',(#189,#190,#191,#192));
#149=AXIS2_PLACEMENT_3D('',#193,#194,#195);
#150=SURFACE_SIDE_STYLE('',(#196));
#151=EDGE_LOOP('',(#197,#198));
#152=AXIS2_PLACEMENT_3D('',#199,#200,#201);
#153=DRAUGHTING_PRE_DEFINED_CURVE_FONT('continuous');
#154=COLOUR_RGB('',0.800000011920929,0.800000011920929,0.800000011920929);
#155=AXIS2_PLACEMENT_3D('',#202,#203,#204);
#156=DRAUGHTING_PRE_DEFINED_CURVE_FONT('continuous');
#157=COLOUR_RGB('',0.800000011920929,0.800000011920929,0.800000011920929);
#158=CARTESIAN_POINT('',(0.0,8.0,0.0));
#159=VECTOR('',#205,1.0);
#160=PRE_DEFINED_MARKER('');
#161=COLOUR_RGB('',0.800000011920929,0.800000011920929,0.800000011920929);
#162=DRAUGHTING_PRE_DEFINED_CURVE_FONT('continuous');
#163=COLOUR_RGB('',0.800000011920929,0.800000011920929,0.800000011920929);
#164=AXIS2_PLACEMENT_3D('',#206,#207,#208);
#166=SURFACE_STYLE_FILL_AREA(#209);
#167=CARTESIAN_POINT('',(8.0,8.0,-5.56));
#168=DIRECTION('',(0.0,0.0,1.0));
#169=DIRECTION('',(-1.0,3.33066907387547E-016,0.0));
#170=SURFACE_STYLE_FILL_AREA(#210);
#171=ORIENTED_EDGE('',*,*,#53,.T.);
#172=ORIENTED_EDGE('',*,*,#47,.T.);
#173=ORIENTED_EDGE('',*,*,#63,.T.);
#174=ORIENTED_EDGE('',*,*,#61,.F.);
#175=CARTESIAN_POINT('',(8.0,8.0,0.0));
#176=DIRECTION('',(-0.0,-0.0,1.0));
#177=DIRECTION('',(1.0,-2.22044604925031E-016,0.0));
#178=CARTESIAN_POINT('',(8.0,8.0,-5.56));
#179=DIRECTION('',(0.0,0.0,1.0));
#180=DIRECTION('',(-1.0,3.33066907387547E-016,0.0));
#181=SURFACE_STYLE_FILL_AREA(#211);
#182=ORIENTED_EDGE('',*,*,#67,.T.);
#183=ORIENTED_EDGE('',*,*,#61,.T.);
#184=CARTESIAN_POINT('',(8.0,8.0,0.0));
#185=DIRECTION('',(0.0,0.0,1.0));
#186=DIRECTION('',(1.0,0.0,0.0));
#187=DIRECTION('',(-0.190808995376545,0.0,-0.981627183447664));
#188=SURFACE_STYLE_FILL_AREA(#212);
#189=ORIENTED_EDGE('',*,*,#53,.F.);
#190=ORIENTED_EDGE('',*,*,#67,.F.);
#191=ORIENTED_EDGE('',*,*,#63,.F.);
#192=ORIENTED_EDGE('',*,*,#43,.T.);
#193=CARTESIAN_POINT('',(8.0,8.0,0.0));
#194=DIRECTION('',(-0.0,-0.0,1.0));
#195=DIRECTION('',(1.0,-2.22044604925031E-016,0.0));
#196=SURFACE_STYLE_FILL_AREA(#213);
#197=ORIENTED_EDGE('',*,*,#47,.F.);
#198=ORIENTED_EDGE('',*,*,#43,.F.);
#199=CARTESIAN_POINT('',(8.0,8.0,-5.56));
#200=DIRECTION('',(0.0,0.0,1.0));
#201=DIRECTION('',(1.0,0.0,0.0));
#202=CARTESIAN_POINT('',(8.0,8.0,0.0));
#203=DIRECTION('',(0.0,0.0,1.0));
#204=DIRECTION('',(1.0,-2.22044604925031E-016,0.0));
#205=DIRECTION('',(-0.190808995376545,-0.0,0.981627183447664));
#206=CARTESIAN_POINT('',(8.0,8.0,0.0));
#207=DIRECTION('',(0.0,0.0,1.0));
#208=DIRECTION('',(1.0,-2.22044604925031E-016,0.0));
#209=FILL_AREA_STYLE('',(#214));
#210=FILL_AREA_STYLE('',(#215));
#211=FILL_AREA_STYLE('',(#216));
#212=FILL_AREA_STYLE('',(#217));
#213=FILL_AREA_STYLE('',(#218));
#214=FILL_AREA_STYLE_COLOUR('',#219);
#215=FILL_AREA_STYLE_COLOUR('',#220);
#216=FILL_AREA_STYLE_COLOUR('',#221);
#217=FILL_AREA_STYLE_COLOUR('',#222);
#218=FILL_AREA_STYLE_COLOUR('',#223);
#219=COLOUR_RGB('',0.800000011920929,0.800000011920929,0.800000011920929);
#220=COLOUR_RGB('',0.800000011920929,0.800000011920929,0.800000011920929);
#221=COLOUR_RGB('',0.800000011920929,0.800000011920929,0.800000011920929);
#222=COLOUR_RGB('',0.800000011920929,0.800000011920929,0.800000011920929);
#223=COLOUR_RGB('',0.800000011920929,0.800000011920929,0.800000011920929);
#224=AXIS2_PLACEMENT_3D('PCS',#225,#226,#227);
#225=CARTESIAN_POINT('',(0.0,0.0,0.0));
#226=DIRECTION('',(0.0,0.0,1.0));
#227=DIRECTION('',(1.0,0.0,0.0));
#228=AXIS2_PLACEMENT_3D('MCS',#229,#230,#231);
#229=CARTESIAN_POINT('',(8.0,8.0,0.0));
#230=DIRECTION('',(0.0,0.0,1.0));
#231=DIRECTION('',(1.0,0.0,0.0));
#232=CONSTRUCTIVE_GEOMETRY_REPRESENTATION_RELATIONSHIP('coordinate systems',$,#29,#233);
#233=CONSTRUCTIVE_GEOMETRY_REPRESENTATION('coordinate systems',(#224,#228),#6);
ENDSEC;
END-ISO-10303-21;
