ISO-10303-21;
HEADER;
FILE_DESCRIPTION(('no description'),'unknown implementation level');
FILE_NAME('solidlzUXetVj1Qlx2whSWo2kU6GoHVo_1.STP','  ',('CIMSOURCE GmbH'),('CADClick - KiM GmbH - www.kimweb.de'),'unknown preprocess','ACIS','unknown authorization');
FILE_SCHEMA(('automotive_design'));
ENDSEC;
DATA;
#1=MECHANICAL_DESIGN_GEOMETRIC_PRESENTATION_REPRESENTATION(' ',(#10,#11,#12,#13,#14,#15,#16,#17,#18,#19,#20,#21,#22,#23,#24,#25,#26,#27,#28,#29,#30,#31,#32,#33,#34,#35,#36,#37,#38,#39,#40,#41,#42,#43,#44,#45,#46,#47,#48,#49,#50,#51,#52,#53,#54,#55,#56,#57,#58,#59,#60),#6);
#2=PRODUCT_DEFINITION_CONTEXT('',#61,'design');
#3=APPLICATION_PROTOCOL_DEFINITION('INTERNATIONAL STANDARD','automotive_design',1994,#61);
#4=PRODUCT_CATEGORY_RELATIONSHIP('NONE','NONE',#62,#63);
#5=SHAPE_DEFINITION_REPRESENTATION(#64,#65);
#6= (GEOMETRIC_REPRESENTATION_CONTEXT(3)GLOBAL_UNCERTAINTY_ASSIGNED_CONTEXT((#68))GLOBAL_UNIT_ASSIGNED_CONTEXT((#70,#71,#72))REPRESENTATION_CONTEXT('NONE','WORKSPACE'));
#10=STYLED_ITEM('',(#74),#75);
#11=STYLED_ITEM('',(#76),#77);
#12=STYLED_ITEM('',(#78),#79);
#13=STYLED_ITEM('',(#80),#81);
#14=STYLED_ITEM('',(#82),#83);
#15=STYLED_ITEM('',(#84),#85);
#16=STYLED_ITEM('',(#86),#87);
#17=STYLED_ITEM('',(#88),#89);
#18=STYLED_ITEM('',(#90),#91);
#19=STYLED_ITEM('',(#92),#93);
#20=STYLED_ITEM('',(#94),#95);
#21=STYLED_ITEM('',(#96),#97);
#22=STYLED_ITEM('',(#98),#99);
#23=STYLED_ITEM('',(#100),#101);
#24=STYLED_ITEM('',(#102),#103);
#25=STYLED_ITEM('',(#104),#105);
#26=STYLED_ITEM('',(#106),#107);
#27=STYLED_ITEM('',(#108),#109);
#28=STYLED_ITEM('',(#110),#111);
#29=STYLED_ITEM('',(#112),#113);
#30=STYLED_ITEM('',(#114),#115);
#31=STYLED_ITEM('',(#116),#117);
#32=STYLED_ITEM('',(#118),#119);
#33=STYLED_ITEM('',(#120),#121);
#34=STYLED_ITEM('',(#122),#123);
#35=STYLED_ITEM('',(#124),#125);
#36=STYLED_ITEM('',(#126),#127);
#37=STYLED_ITEM('',(#128),#129);
#38=STYLED_ITEM('',(#130),#131);
#39=STYLED_ITEM('',(#132),#133);
#40=STYLED_ITEM('',(#134),#135);
#41=STYLED_ITEM('',(#136),#137);
#42=STYLED_ITEM('',(#138),#139);
#43=STYLED_ITEM('',(#140),#141);
#44=STYLED_ITEM('',(#142),#143);
#45=STYLED_ITEM('',(#144),#145);
#46=STYLED_ITEM('',(#146),#147);
#47=STYLED_ITEM('',(#148),#149);
#48=STYLED_ITEM('',(#150),#151);
#49=STYLED_ITEM('',(#152),#153);
#50=STYLED_ITEM('',(#154),#155);
#51=STYLED_ITEM('',(#156),#157);
#52=STYLED_ITEM('',(#158),#159);
#53=STYLED_ITEM('',(#160),#161);
#54=STYLED_ITEM('',(#162),#163);
#55=STYLED_ITEM('',(#164),#165);
#56=STYLED_ITEM('',(#166),#167);
#57=STYLED_ITEM('',(#168),#169);
#58=STYLED_ITEM('',(#170),#171);
#59=STYLED_ITEM('',(#172),#173);
#60=STYLED_ITEM('',(#174),#175);
#61=APPLICATION_CONTEXT(' ');
#62=PRODUCT_CATEGORY('part','NONE');
#63=PRODUCT_RELATED_PRODUCT_CATEGORY('detail',' ',(#176));
#64=PRODUCT_DEFINITION_SHAPE('NONE','NONE',#177);
#65=ADVANCED_BREP_SHAPE_REPRESENTATION('1',(#103,#178),#6);
#68=UNCERTAINTY_MEASURE_WITH_UNIT(LENGTH_MEASURE(1.0E-006),#70,'','');
#70= (CONVERSION_BASED_UNIT('MILLIMETRE',#181)LENGTH_UNIT()NAMED_UNIT(#184));
#71= (NAMED_UNIT(#186)PLANE_ANGLE_UNIT()SI_UNIT($,.RADIAN.));
#72= (NAMED_UNIT(#186)SOLID_ANGLE_UNIT()SI_UNIT($,.STERADIAN.));
#74=PRESENTATION_STYLE_ASSIGNMENT((#192));
#75=ADVANCED_FACE('',(#193),#194,.T.);
#76=PRESENTATION_STYLE_ASSIGNMENT((#195));
#77=VERTEX_POINT('',#196);
#78=PRESENTATION_STYLE_ASSIGNMENT((#197));
#79=VERTEX_POINT('',#198);
#80=PRESENTATION_STYLE_ASSIGNMENT((#199));
#81=EDGE_CURVE('',#161,#137,#200,.T.);
#82=PRESENTATION_STYLE_ASSIGNMENT((#201));
#83=EDGE_CURVE('',#93,#77,#202,.T.);
#84=PRESENTATION_STYLE_ASSIGNMENT((#203));
#85=VERTEX_POINT('',#204);
#86=PRESENTATION_STYLE_ASSIGNMENT((#205));
#87=VERTEX_POINT('',#206);
#88=PRESENTATION_STYLE_ASSIGNMENT((#207));
#89=EDGE_CURVE('',#133,#131,#208,.T.);
#90=PRESENTATION_STYLE_ASSIGNMENT((#209));
#91=EDGE_CURVE('',#137,#95,#210,.T.);
#92=PRESENTATION_STYLE_ASSIGNMENT((#211));
#93=VERTEX_POINT('',#212);
#94=PRESENTATION_STYLE_ASSIGNMENT((#213));
#95=VERTEX_POINT('',#214);
#96=PRESENTATION_STYLE_ASSIGNMENT((#215));
#97=EDGE_CURVE('',#101,#175,#216,.T.);
#98=PRESENTATION_STYLE_ASSIGNMENT((#217));
#99=EDGE_CURVE('',#77,#119,#218,.T.);
#100=PRESENTATION_STYLE_ASSIGNMENT((#219));
#101=VERTEX_POINT('',#220);
#102=PRESENTATION_STYLE_ASSIGNMENT((#221));
#103=MANIFOLD_SOLID_BREP('1',#222);
#104=PRESENTATION_STYLE_ASSIGNMENT((#223));
#105=EDGE_CURVE('',#79,#133,#224,.T.);
#106=PRESENTATION_STYLE_ASSIGNMENT((#225));
#107=EDGE_CURVE('',#153,#137,#226,.T.);
#108=PRESENTATION_STYLE_ASSIGNMENT((#227));
#109=EDGE_CURVE('',#85,#101,#228,.T.);
#110=PRESENTATION_STYLE_ASSIGNMENT((#229));
#111=VERTEX_POINT('',#230);
#112=PRESENTATION_STYLE_ASSIGNMENT((#231));
#113=ADVANCED_FACE('',(#232),#233,.T.);
#114=PRESENTATION_STYLE_ASSIGNMENT((#234));
#115=ADVANCED_FACE('',(#235),#236,.T.);
#116=PRESENTATION_STYLE_ASSIGNMENT((#237));
#117=ADVANCED_FACE('',(#238),#239,.T.);
#118=PRESENTATION_STYLE_ASSIGNMENT((#240));
#119=VERTEX_POINT('',#241);
#120=PRESENTATION_STYLE_ASSIGNMENT((#242));
#121=EDGE_CURVE('',#131,#153,#243,.T.);
#122=PRESENTATION_STYLE_ASSIGNMENT((#244));
#123=ADVANCED_FACE('',(#245),#246,.T.);
#124=PRESENTATION_STYLE_ASSIGNMENT((#247));
#125=EDGE_CURVE('',#111,#87,#248,.T.);
#126=PRESENTATION_STYLE_ASSIGNMENT((#249));
#127=EDGE_CURVE('',#87,#77,#250,.T.);
#128=PRESENTATION_STYLE_ASSIGNMENT((#251));
#129=ADVANCED_FACE('',(#252),#253,.T.);
#130=PRESENTATION_STYLE_ASSIGNMENT((#254));
#131=VERTEX_POINT('',#255);
#132=PRESENTATION_STYLE_ASSIGNMENT((#256));
#133=VERTEX_POINT('',#257);
#134=PRESENTATION_STYLE_ASSIGNMENT((#258));
#135=EDGE_CURVE('',#119,#131,#259,.T.);
#136=PRESENTATION_STYLE_ASSIGNMENT((#260));
#137=VERTEX_POINT('',#261);
#138=PRESENTATION_STYLE_ASSIGNMENT((#262));
#139=EDGE_CURVE('',#95,#175,#263,.T.);
#140=PRESENTATION_STYLE_ASSIGNMENT((#264));
#141=ADVANCED_FACE('',(#265),#266,.T.);
#142=PRESENTATION_STYLE_ASSIGNMENT((#267));
#143=ADVANCED_FACE('',(#268),#269,.T.);
#144=PRESENTATION_STYLE_ASSIGNMENT((#270));
#145=EDGE_CURVE('',#93,#79,#271,.T.);
#146=PRESENTATION_STYLE_ASSIGNMENT((#272));
#147=EDGE_CURVE('',#157,#153,#273,.T.);
#148=PRESENTATION_STYLE_ASSIGNMENT((#274));
#149=ADVANCED_FACE('',(#275),#276,.F.);
#150=PRESENTATION_STYLE_ASSIGNMENT((#277));
#151=EDGE_CURVE('',#85,#95,#278,.T.);
#152=PRESENTATION_STYLE_ASSIGNMENT((#279));
#153=VERTEX_POINT('',#280);
#154=PRESENTATION_STYLE_ASSIGNMENT((#281));
#155=EDGE_CURVE('',#101,#111,#282,.T.);
#156=PRESENTATION_STYLE_ASSIGNMENT((#283));
#157=VERTEX_POINT('',#284);
#158=PRESENTATION_STYLE_ASSIGNMENT((#285));
#159=EDGE_CURVE('',#157,#161,#286,.T.);
#160=PRESENTATION_STYLE_ASSIGNMENT((#287));
#161=VERTEX_POINT('',#288);
#162=PRESENTATION_STYLE_ASSIGNMENT((#289));
#163=EDGE_CURVE('',#133,#157,#290,.T.);
#164=PRESENTATION_STYLE_ASSIGNMENT((#291));
#165=ADVANCED_FACE('',(#292),#293,.T.);
#166=PRESENTATION_STYLE_ASSIGNMENT((#294));
#167=EDGE_CURVE('',#161,#85,#295,.T.);
#168=PRESENTATION_STYLE_ASSIGNMENT((#296));
#169=EDGE_CURVE('',#175,#87,#297,.T.);
#170=PRESENTATION_STYLE_ASSIGNMENT((#298));
#171=EDGE_CURVE('',#111,#93,#299,.T.);
#172=PRESENTATION_STYLE_ASSIGNMENT((#300));
#173=EDGE_CURVE('',#79,#119,#301,.T.);
#174=PRESENTATION_STYLE_ASSIGNMENT((#302));
#175=VERTEX_POINT('',#303);
#176=PRODUCT('1','1','PART-1-DESC',(#304));
#177=PRODUCT_DEFINITION('NONE','NONE',#305,#2);
#178=AXIS2_PLACEMENT_3D('',#306,#307,#308);
#181=LENGTH_MEASURE_WITH_UNIT(LENGTH_MEASURE(1.0),#309);
#184=DIMENSIONAL_EXPONENTS(1.0,0.0,0.0,0.0,0.0,0.0,0.0);
#186=DIMENSIONAL_EXPONENTS(0.0,0.0,0.0,0.0,0.0,0.0,0.0);
#192=SURFACE_STYLE_USAGE(.BOTH.,#310);
#193=FACE_OUTER_BOUND('',#311,.T.);
#194=CONICAL_SURFACE('',#312,1.0,0.15707963267949);
#195=POINT_STYLE(' ',#313,POSITIVE_LENGTH_MEASURE(1.0E-006),#314);
#196=CARTESIAN_POINT('',(1.0,0.753909935944794,-4.76));
#197=POINT_STYLE(' ',#315,POSITIVE_LENGTH_MEASURE(1.0E-006),#316);
#198=CARTESIAN_POINT('',(11.7,0.0,0.0));
#199=CURVE_STYLE('',#317,POSITIVE_LENGTH_MEASURE(1.0E-006),#318);
#200=LINE('',#319,#320);
#201=CURVE_STYLE('',#321,POSITIVE_LENGTH_MEASURE(1.0E-006),#322);
#202=LINE('',#323,#324);
#203=POINT_STYLE(' ',#325,POSITIVE_LENGTH_MEASURE(1.0E-006),#326);
#204=CARTESIAN_POINT('',(1.0,12.7,0.0));
#205=POINT_STYLE(' ',#327,POSITIVE_LENGTH_MEASURE(1.0E-006),#328);
#206=CARTESIAN_POINT('',(0.753909936044794,1.00000000007539,-4.76));
#207=CURVE_STYLE('',#329,POSITIVE_LENGTH_MEASURE(1.0E-006),#330);
#208=LINE('',#331,#332);
#209=CURVE_STYLE('',#333,POSITIVE_LENGTH_MEASURE(1.0E-006),#334);
#210=LINE('',#335,#336);
#211=POINT_STYLE(' ',#337,POSITIVE_LENGTH_MEASURE(1.0E-006),#338);
#212=CARTESIAN_POINT('',(1.0,0.0,0.0));
#213=POINT_STYLE(' ',#339,POSITIVE_LENGTH_MEASURE(1.0E-006),#340);
#214=CARTESIAN_POINT('',(1.00000000007539,11.9460900639552,-4.76));
#215=CURVE_STYLE('',#341,POSITIVE_LENGTH_MEASURE(1.0E-006),#342);
#216=LINE('',#343,#344);
#217=CURVE_STYLE('',#345,POSITIVE_LENGTH_MEASURE(1.0E-006),#346);
#218=LINE('',#347,#348);
#219=POINT_STYLE(' ',#349,POSITIVE_LENGTH_MEASURE(1.0E-006),#350);
#220=CARTESIAN_POINT('',(1.00000008274037E-010,11.7,0.0));
#221=SURFACE_STYLE_USAGE(.BOTH.,#351);
#222=CLOSED_SHELL('',(#141,#123,#143,#165,#115,#117,#75,#129,#149,#113));
#223=CURVE_STYLE('',#352,POSITIVE_LENGTH_MEASURE(1.0E-006),#353);
#224=CIRCLE('',#354,1.0);
#225=CURVE_STYLE('',#355,POSITIVE_LENGTH_MEASURE(1.0E-006),#356);
#226=CIRCLE('',#357,0.246090064055204);
#227=CURVE_STYLE('',#358,POSITIVE_LENGTH_MEASURE(1.0E-006),#359);
#228=CIRCLE('',#360,0.999999999999998);
#229=POINT_STYLE(' ',#361,POSITIVE_LENGTH_MEASURE(1.0E-006),#362);
#230=CARTESIAN_POINT('',(0.0,1.0,0.0));
#231=SURFACE_STYLE_USAGE(.BOTH.,#363);
#232=FACE_OUTER_BOUND('',#364,.T.);
#233=PLANE('',#365);
#234=SURFACE_STYLE_USAGE(.BOTH.,#366);
#235=FACE_OUTER_BOUND('',#367,.T.);
#236=CONICAL_SURFACE('',#368,0.999999999999998,0.15707963267949);
#237=SURFACE_STYLE_USAGE(.BOTH.,#369);
#238=FACE_OUTER_BOUND('',#370,.T.);
#239=PLANE('',#371);
#240=POINT_STYLE(' ',#372,POSITIVE_LENGTH_MEASURE(1.0E-006),#373);
#241=CARTESIAN_POINT('',(11.6999999999246,0.753909936044794,-4.76));
#242=CURVE_STYLE('',#374,POSITIVE_LENGTH_MEASURE(1.0E-006),#375);
#243=LINE('',#376,#377);
#244=SURFACE_STYLE_USAGE(.BOTH.,#378);
#245=FACE_OUTER_BOUND('',#379,.T.);
#246=PLANE('',#380);
#247=CURVE_STYLE('',#381,POSITIVE_LENGTH_MEASURE(1.0E-006),#382);
#248=LINE('',#383,#384);
#249=CURVE_STYLE('',#385,POSITIVE_LENGTH_MEASURE(1.0E-006),#386);
#250=CIRCLE('',#387,0.246090064055207);
#251=SURFACE_STYLE_USAGE(.BOTH.,#388);
#252=FACE_OUTER_BOUND('',#389,.T.);
#253=PLANE('',#390);
#254=POINT_STYLE(' ',#391,POSITIVE_LENGTH_MEASURE(1.0E-006),#392);
#255=CARTESIAN_POINT('',(11.9460900640552,1.0,-4.76));
#256=POINT_STYLE(' ',#393,POSITIVE_LENGTH_MEASURE(1.0E-006),#394);
#257=CARTESIAN_POINT('',(12.6999999999,1.0,0.0));
#258=CURVE_STYLE('',#395,POSITIVE_LENGTH_MEASURE(1.0E-006),#396);
#259=CIRCLE('',#397,0.246090064055206);
#260=POINT_STYLE(' ',#398,POSITIVE_LENGTH_MEASURE(1.0E-006),#399);
#261=CARTESIAN_POINT('',(11.7,11.9460900640552,-4.76));
#262=CURVE_STYLE('',#400,POSITIVE_LENGTH_MEASURE(1.0E-006),#401);
#263=CIRCLE('',#402,0.246090064055204);
#264=SURFACE_STYLE_USAGE(.BOTH.,#403);
#265=FACE_OUTER_BOUND('',#404,.T.);
#266=CONICAL_SURFACE('',#405,1.0,0.15707963267949);
#267=SURFACE_STYLE_USAGE(.BOTH.,#406);
#268=FACE_OUTER_BOUND('',#407,.T.);
#269=CONICAL_SURFACE('',#408,0.999999999999998,0.15707963267949);
#270=CURVE_STYLE('',#409,POSITIVE_LENGTH_MEASURE(1.0E-006),#410);
#271=LINE('',#411,#412);
#272=CURVE_STYLE('',#413,POSITIVE_LENGTH_MEASURE(1.0E-006),#414);
#273=LINE('',#415,#416);
#274=SURFACE_STYLE_USAGE(.BOTH.,#417);
#275=FACE_OUTER_BOUND('',#418,.T.);
#276=PLANE('',#419);
#277=CURVE_STYLE('',#420,POSITIVE_LENGTH_MEASURE(1.0E-006),#421);
#278=LINE('',#422,#423);
#279=POINT_STYLE(' ',#424,POSITIVE_LENGTH_MEASURE(1.0E-006),#425);
#280=CARTESIAN_POINT('',(11.9460900639552,11.6999999999246,-4.76));
#281=CURVE_STYLE('',#426,POSITIVE_LENGTH_MEASURE(1.0E-006),#427);
#282=LINE('',#428,#429);
#283=POINT_STYLE(' ',#430,POSITIVE_LENGTH_MEASURE(1.0E-006),#431);
#284=CARTESIAN_POINT('',(12.7,11.7,0.0));
#285=CURVE_STYLE('',#432,POSITIVE_LENGTH_MEASURE(1.0E-006),#433);
#286=CIRCLE('',#434,0.999999999999998);
#287=POINT_STYLE(' ',#435,POSITIVE_LENGTH_MEASURE(1.0E-006),#436);
#288=CARTESIAN_POINT('',(11.7,12.6999999999,0.0));
#289=CURVE_STYLE('',#437,POSITIVE_LENGTH_MEASURE(1.0E-006),#438);
#290=LINE('',#439,#440);
#291=SURFACE_STYLE_USAGE(.BOTH.,#441);
#292=FACE_OUTER_BOUND('',#442,.T.);
#293=PLANE('',#443);
#294=CURVE_STYLE('',#444,POSITIVE_LENGTH_MEASURE(1.0E-006),#445);
#295=LINE('',#446,#447);
#296=CURVE_STYLE('',#448,POSITIVE_LENGTH_MEASURE(1.0E-006),#449);
#297=LINE('',#450,#451);
#298=CURVE_STYLE('',#452,POSITIVE_LENGTH_MEASURE(1.0E-006),#453);
#299=CIRCLE('',#454,1.0);
#300=CURVE_STYLE('',#455,POSITIVE_LENGTH_MEASURE(1.0E-006),#456);
#301=LINE('',#457,#458);
#302=POINT_STYLE(' ',#459,POSITIVE_LENGTH_MEASURE(1.0E-006),#460);
#303=CARTESIAN_POINT('',(0.753909935944794,11.7,-4.76));
#304=PRODUCT_CONTEXT('',#61,'mechanical');
#305=PRODUCT_DEFINITION_FORMATION_WITH_SPECIFIED_SOURCE(' ','NONE',#176,.NOT_KNOWN.);
#306=CARTESIAN_POINT('',(0.0,0.0,0.0));
#307=DIRECTION('',(0.0,0.0,1.0));
#308=DIRECTION('',(1.0,0.0,0.0));
#309= (NAMED_UNIT(#184)LENGTH_UNIT()SI_UNIT(.MILLI.,.METRE.));
#310=SURFACE_SIDE_STYLE('',(#462));
#311=EDGE_LOOP('',(#463,#464,#465,#466));
#312=AXIS2_PLACEMENT_3D('',#467,#468,#469);
#313=PRE_DEFINED_MARKER('');
#314=COLOUR_RGB('',0.800000011920929,0.800000011920929,0.800000011920929);
#315=PRE_DEFINED_MARKER('');
#316=COLOUR_RGB('',0.800000011920929,0.800000011920929,0.800000011920929);
#317=DRAUGHTING_PRE_DEFINED_CURVE_FONT('continuous');
#318=COLOUR_RGB('',0.800000011920929,0.800000011920929,0.800000011920929);
#319=CARTESIAN_POINT('',(11.7,12.6999999999,0.0));
#320=VECTOR('',#470,1.0);
#321=DRAUGHTING_PRE_DEFINED_CURVE_FONT('continuous');
#322=COLOUR_RGB('',0.800000011920929,0.800000011920929,0.800000011920929);
#323=CARTESIAN_POINT('',(1.0,0.0,0.0));
#324=VECTOR('',#471,1.0);
#325=PRE_DEFINED_MARKER('');
#326=COLOUR_RGB('',0.800000011920929,0.800000011920929,0.800000011920929);
#327=PRE_DEFINED_MARKER('');
#328=COLOUR_RGB('',0.800000011920929,0.800000011920929,0.800000011920929);
#329=DRAUGHTING_PRE_DEFINED_CURVE_FONT('continuous');
#330=COLOUR_RGB('',0.800000011920929,0.800000011920929,0.800000011920929);
#331=CARTESIAN_POINT('',(12.6999999999,1.0,0.0));
#332=VECTOR('',#472,1.0);
#333=DRAUGHTING_PRE_DEFINED_CURVE_FONT('continuous');
#334=COLOUR_RGB('',0.800000011920929,0.800000011920929,0.800000011920929);
#335=CARTESIAN_POINT('',(11.7,11.9460900640552,-4.76));
#336=VECTOR('',#473,1.0);
#337=PRE_DEFINED_MARKER('');
#338=COLOUR_RGB('',0.800000011920929,0.800000011920929,0.800000011920929);
#339=PRE_DEFINED_MARKER('');
#340=COLOUR_RGB('',0.800000011920929,0.800000011920929,0.800000011920929);
#341=DRAUGHTING_PRE_DEFINED_CURVE_FONT('continuous');
#342=COLOUR_RGB('',0.800000011920929,0.800000011920929,0.800000011920929);
#343=CARTESIAN_POINT('',(1.00000008274037E-010,11.7,0.0));
#344=VECTOR('',#474,1.0);
#345=DRAUGHTING_PRE_DEFINED_CURVE_FONT('continuous');
#346=COLOUR_RGB('',0.800000011920929,0.800000011920929,0.800000011920929);
#347=CARTESIAN_POINT('',(1.0,0.753909935944794,-4.76));
#348=VECTOR('',#475,1.0);
#349=PRE_DEFINED_MARKER('');
#350=COLOUR_RGB('',0.800000011920929,0.800000011920929,0.800000011920929);
#351=SURFACE_SIDE_STYLE('',(#476));
#352=DRAUGHTING_PRE_DEFINED_CURVE_FONT('continuous');
#353=COLOUR_RGB('',0.800000011920929,0.800000011920929,0.800000011920929);
#354=AXIS2_PLACEMENT_3D('',#477,#478,#479);
#355=DRAUGHTING_PRE_DEFINED_CURVE_FONT('continuous');
#356=COLOUR_RGB('',0.800000011920929,0.800000011920929,0.800000011920929);
#357=AXIS2_PLACEMENT_3D('',#480,#481,#482);
#358=DRAUGHTING_PRE_DEFINED_CURVE_FONT('continuous');
#359=COLOUR_RGB('',0.800000011920929,0.800000011920929,0.800000011920929);
#360=AXIS2_PLACEMENT_3D('',#483,#484,#485);
#361=PRE_DEFINED_MARKER('');
#362=COLOUR_RGB('',0.800000011920929,0.800000011920929,0.800000011920929);
#363=SURFACE_SIDE_STYLE('',(#486));
#364=EDGE_LOOP('',(#487,#488,#489,#490,#491,#492,#493,#494));
#365=AXIS2_PLACEMENT_3D('',#495,#496,#497);
#366=SURFACE_SIDE_STYLE('',(#498));
#367=EDGE_LOOP('',(#499,#500,#501,#502));
#368=AXIS2_PLACEMENT_3D('',#503,#504,#505);
#369=SURFACE_SIDE_STYLE('',(#506));
#370=EDGE_LOOP('',(#507,#508,#509,#510));
#371=AXIS2_PLACEMENT_3D('',#511,#512,#513);
#372=PRE_DEFINED_MARKER('');
#373=COLOUR_RGB('',0.800000011920929,0.800000011920929,0.800000011920929);
#374=DRAUGHTING_PRE_DEFINED_CURVE_FONT('continuous');
#375=COLOUR_RGB('',0.800000011920929,0.800000011920929,0.800000011920929);
#376=CARTESIAN_POINT('',(11.9460900640552,1.0,-4.76));
#377=VECTOR('',#514,1.0);
#378=SURFACE_SIDE_STYLE('',(#515));
#379=EDGE_LOOP('',(#516,#517,#518,#519));
#380=AXIS2_PLACEMENT_3D('',#520,#521,#522);
#381=DRAUGHTING_PRE_DEFINED_CURVE_FONT('continuous');
#382=COLOUR_RGB('',0.800000011920929,0.800000011920929,0.800000011920929);
#383=CARTESIAN_POINT('',(0.0,1.0,0.0));
#384=VECTOR('',#523,1.0);
#385=DRAUGHTING_PRE_DEFINED_CURVE_FONT('continuous');
#386=COLOUR_RGB('',0.800000011920929,0.800000011920929,0.800000011920929);
#387=AXIS2_PLACEMENT_3D('',#524,#525,#526);
#388=SURFACE_SIDE_STYLE('',(#527));
#389=EDGE_LOOP('',(#528,#529,#530,#531));
#390=AXIS2_PLACEMENT_3D('',#532,#533,#534);
#391=PRE_DEFINED_MARKER('');
#392=COLOUR_RGB('',0.800000011920929,0.800000011920929,0.800000011920929);
#393=PRE_DEFINED_MARKER('');
#394=COLOUR_RGB('',0.800000011920929,0.800000011920929,0.800000011920929);
#395=DRAUGHTING_PRE_DEFINED_CURVE_FONT('continuous');
#396=COLOUR_RGB('',0.800000011920929,0.800000011920929,0.800000011920929);
#397=AXIS2_PLACEMENT_3D('',#535,#536,#537);
#398=PRE_DEFINED_MARKER('');
#399=COLOUR_RGB('',0.800000011920929,0.800000011920929,0.800000011920929);
#400=DRAUGHTING_PRE_DEFINED_CURVE_FONT('continuous');
#401=COLOUR_RGB('',0.800000011920929,0.800000011920929,0.800000011920929);
#402=AXIS2_PLACEMENT_3D('',#538,#539,#540);
#403=SURFACE_SIDE_STYLE('',(#541));
#404=EDGE_LOOP('',(#542,#543,#544,#545));
#405=AXIS2_PLACEMENT_3D('',#546,#547,#548);
#406=SURFACE_SIDE_STYLE('',(#549));
#407=EDGE_LOOP('',(#550,#551,#552,#553));
#408=AXIS2_PLACEMENT_3D('',#554,#555,#556);
#409=DRAUGHTING_PRE_DEFINED_CURVE_FONT('continuous');
#410=COLOUR_RGB('',0.800000011920929,0.800000011920929,0.800000011920929);
#411=CARTESIAN_POINT('',(1.0,0.0,0.0));
#412=VECTOR('',#557,1.0);
#413=DRAUGHTING_PRE_DEFINED_CURVE_FONT('continuous');
#414=COLOUR_RGB('',0.800000011920929,0.800000011920929,0.800000011920929);
#415=CARTESIAN_POINT('',(12.7,11.7,0.0));
#416=VECTOR('',#558,1.0);
#417=SURFACE_SIDE_STYLE('',(#559));
#418=EDGE_LOOP('',(#560,#561,#562,#563,#564,#565,#566,#567));
#419=AXIS2_PLACEMENT_3D('',#568,#569,#570);
#420=DRAUGHTING_PRE_DEFINED_CURVE_FONT('continuous');
#421=COLOUR_RGB('',0.800000011920929,0.800000011920929,0.800000011920929);
#422=CARTESIAN_POINT('',(1.0,12.7,0.0));
#423=VECTOR('',#571,1.0);
#424=PRE_DEFINED_MARKER('');
#425=COLOUR_RGB('',0.800000011920929,0.800000011920929,0.800000011920929);
#426=DRAUGHTING_PRE_DEFINED_CURVE_FONT('continuous');
#427=COLOUR_RGB('',0.800000011920929,0.800000011920929,0.800000011920929);
#428=CARTESIAN_POINT('',(0.0,11.7,0.0));
#429=VECTOR('',#572,1.0);
#430=PRE_DEFINED_MARKER('');
#431=COLOUR_RGB('',0.800000011920929,0.800000011920929,0.800000011920929);
#432=DRAUGHTING_PRE_DEFINED_CURVE_FONT('continuous');
#433=COLOUR_RGB('',0.800000011920929,0.800000011920929,0.800000011920929);
#434=AXIS2_PLACEMENT_3D('',#573,#574,#575);
#435=PRE_DEFINED_MARKER('');
#436=COLOUR_RGB('',0.800000011920929,0.800000011920929,0.800000011920929);
#437=DRAUGHTING_PRE_DEFINED_CURVE_FONT('continuous');
#438=COLOUR_RGB('',0.800000011920929,0.800000011920929,0.800000011920929);
#439=CARTESIAN_POINT('',(12.7,1.0,0.0));
#440=VECTOR('',#576,1.0);
#441=SURFACE_SIDE_STYLE('',(#577));
#442=EDGE_LOOP('',(#578,#579,#580,#581));
#443=AXIS2_PLACEMENT_3D('',#582,#583,#584);
#444=DRAUGHTING_PRE_DEFINED_CURVE_FONT('continuous');
#445=COLOUR_RGB('',0.800000011920929,0.800000011920929,0.800000011920929);
#446=CARTESIAN_POINT('',(11.7,12.7,0.0));
#447=VECTOR('',#585,1.0);
#448=DRAUGHTING_PRE_DEFINED_CURVE_FONT('continuous');
#449=COLOUR_RGB('',0.800000011920929,0.800000011920929,0.800000011920929);
#450=CARTESIAN_POINT('',(0.753909935944794,11.7,-4.76));
#451=VECTOR('',#586,1.0);
#452=DRAUGHTING_PRE_DEFINED_CURVE_FONT('continuous');
#453=COLOUR_RGB('',0.800000011920929,0.800000011920929,0.800000011920929);
#454=AXIS2_PLACEMENT_3D('',#587,#588,#589);
#455=DRAUGHTING_PRE_DEFINED_CURVE_FONT('continuous');
#456=COLOUR_RGB('',0.800000011920929,0.800000011920929,0.800000011920929);
#457=CARTESIAN_POINT('',(11.7,0.0,0.0));
#458=VECTOR('',#590,1.0);
#459=PRE_DEFINED_MARKER('');
#460=COLOUR_RGB('',0.800000011920929,0.800000011920929,0.800000011920929);
#462=SURFACE_STYLE_FILL_AREA(#591);
#463=ORIENTED_EDGE('',*,*,#127,.T.);
#464=ORIENTED_EDGE('',*,*,#83,.F.);
#465=ORIENTED_EDGE('',*,*,#171,.F.);
#466=ORIENTED_EDGE('',*,*,#125,.T.);
#467=CARTESIAN_POINT('',(1.0000000001,1.0000000001,0.0));
#468=DIRECTION('',(0.0,-0.0,1.0));
#469=DIRECTION('',(-1.0,-9.99991200956174E-011,0.0));
#470=DIRECTION('',(0.0,-0.156434465019989,-0.987688340598344));
#471=DIRECTION('',(0.0,0.156434465040231,-0.987688340595138));
#472=DIRECTION('',(-0.156434465019989,0.0,-0.987688340598344));
#473=DIRECTION('',(-1.0,0.0,0.0));
#474=DIRECTION('',(0.156434465019989,0.0,-0.987688340598344));
#475=DIRECTION('',(1.0,0.0,0.0));
#476=SURFACE_STYLE_FILL_AREA(#592);
#477=CARTESIAN_POINT('',(11.6999999999,1.0000000001,0.0));
#478=DIRECTION('',(0.0,0.0,1.0));
#479=DIRECTION('',(1.00000008274037E-010,-1.0,0.0));
#480=CARTESIAN_POINT('',(11.6999999999,11.6999999999,-4.76));
#481=DIRECTION('',(0.0,-0.0,1.0));
#482=DIRECTION('',(1.0,9.99982319171979E-011,0.0));
#483=CARTESIAN_POINT('',(1.0000000001,11.6999999999,0.0));
#484=DIRECTION('',(0.0,0.0,1.0));
#485=DIRECTION('',(-9.99983429395003E-011,1.0,0.0));
#486=SURFACE_STYLE_FILL_AREA(#593);
#487=ORIENTED_EDGE('',*,*,#145,.T.);
#488=ORIENTED_EDGE('',*,*,#105,.T.);
#489=ORIENTED_EDGE('',*,*,#163,.T.);
#490=ORIENTED_EDGE('',*,*,#159,.T.);
#491=ORIENTED_EDGE('',*,*,#167,.T.);
#492=ORIENTED_EDGE('',*,*,#109,.T.);
#493=ORIENTED_EDGE('',*,*,#155,.T.);
#494=ORIENTED_EDGE('',*,*,#171,.T.);
#495=CARTESIAN_POINT('',(6.35,6.35,0.0));
#496=DIRECTION('',(0.0,0.0,1.0));
#497=DIRECTION('',(1.0,0.0,0.0));
#498=SURFACE_STYLE_FILL_AREA(#594);
#499=ORIENTED_EDGE('',*,*,#139,.T.);
#500=ORIENTED_EDGE('',*,*,#97,.F.);
#501=ORIENTED_EDGE('',*,*,#109,.F.);
#502=ORIENTED_EDGE('',*,*,#151,.T.);
#503=CARTESIAN_POINT('',(1.0000000001,11.6999999999,0.0));
#504=DIRECTION('',(-0.0,-0.0,1.0));
#505=DIRECTION('',(-9.99983429395003E-011,1.0,0.0));
#506=SURFACE_STYLE_FILL_AREA(#595);
#507=ORIENTED_EDGE('',*,*,#169,.T.);
#508=ORIENTED_EDGE('',*,*,#125,.F.);
#509=ORIENTED_EDGE('',*,*,#155,.F.);
#510=ORIENTED_EDGE('',*,*,#97,.T.);
#511=CARTESIAN_POINT('',(1.00000008274037E-010,11.7,0.0));
#512=DIRECTION('',(-0.987688340598344,0.0,-0.156434465019989));
#513=DIRECTION('',(0.0,1.0,0.0));
#514=DIRECTION('',(0.0,1.0,0.0));
#515=SURFACE_STYLE_FILL_AREA(#596);
#516=ORIENTED_EDGE('',*,*,#121,.T.);
#517=ORIENTED_EDGE('',*,*,#147,.F.);
#518=ORIENTED_EDGE('',*,*,#163,.F.);
#519=ORIENTED_EDGE('',*,*,#89,.T.);
#520=CARTESIAN_POINT('',(12.6999999999,1.0,0.0));
#521=DIRECTION('',(0.987688340598344,-0.0,-0.156434465019989));
#522=DIRECTION('',(-0.0,-1.0,0.0));
#523=DIRECTION('',(0.156434465060473,1.56434994583694E-011,-0.987688340591932));
#524=CARTESIAN_POINT('',(1.0000000001,1.0000000001,-4.76));
#525=DIRECTION('',(0.0,0.0,1.0));
#526=DIRECTION('',(-1.0,-9.99991200956174E-011,0.0));
#527=SURFACE_STYLE_FILL_AREA(#597);
#528=ORIENTED_EDGE('',*,*,#99,.T.);
#529=ORIENTED_EDGE('',*,*,#173,.F.);
#530=ORIENTED_EDGE('',*,*,#145,.F.);
#531=ORIENTED_EDGE('',*,*,#83,.T.);
#532=CARTESIAN_POINT('',(1.0,0.0,0.0));
#533=DIRECTION('',(-0.0,-0.987688340595138,-0.156434465040231));
#534=DIRECTION('',(-1.0,0.0,0.0));
#535=CARTESIAN_POINT('',(11.6999999999,1.0000000001,-4.76));
#536=DIRECTION('',(0.0,0.0,1.0));
#537=DIRECTION('',(1.00000008274037E-010,-1.0,0.0));
#538=CARTESIAN_POINT('',(1.0000000001,11.6999999999,-4.76));
#539=DIRECTION('',(0.0,0.0,1.0));
#540=DIRECTION('',(-9.99983429395003E-011,1.0,0.0));
#541=SURFACE_STYLE_FILL_AREA(#598);
#542=ORIENTED_EDGE('',*,*,#135,.T.);
#543=ORIENTED_EDGE('',*,*,#89,.F.);
#544=ORIENTED_EDGE('',*,*,#105,.F.);
#545=ORIENTED_EDGE('',*,*,#173,.T.);
#546=CARTESIAN_POINT('',(11.6999999999,1.0000000001,0.0));
#547=DIRECTION('',(-0.0,-0.0,1.0));
#548=DIRECTION('',(1.00000008274037E-010,-1.0,0.0));
#549=SURFACE_STYLE_FILL_AREA(#599);
#550=ORIENTED_EDGE('',*,*,#107,.T.);
#551=ORIENTED_EDGE('',*,*,#81,.F.);
#552=ORIENTED_EDGE('',*,*,#159,.F.);
#553=ORIENTED_EDGE('',*,*,#147,.T.);
#554=CARTESIAN_POINT('',(11.6999999999,11.6999999999,0.0));
#555=DIRECTION('',(-0.0,-0.0,1.0));
#556=DIRECTION('',(1.0,9.99982319171979E-011,0.0));
#557=DIRECTION('',(1.0,0.0,0.0));
#558=DIRECTION('',(-0.156434465060473,-1.56433151635229E-011,-0.987688340591932));
#559=SURFACE_STYLE_FILL_AREA(#600);
#560=ORIENTED_EDGE('',*,*,#135,.F.);
#561=ORIENTED_EDGE('',*,*,#99,.F.);
#562=ORIENTED_EDGE('',*,*,#127,.F.);
#563=ORIENTED_EDGE('',*,*,#169,.F.);
#564=ORIENTED_EDGE('',*,*,#139,.F.);
#565=ORIENTED_EDGE('',*,*,#91,.F.);
#566=ORIENTED_EDGE('',*,*,#107,.F.);
#567=ORIENTED_EDGE('',*,*,#121,.F.);
#568=CARTESIAN_POINT('',(6.35,6.35,-4.76));
#569=DIRECTION('',(0.0,0.0,1.0));
#570=DIRECTION('',(1.0,0.0,0.0));
#571=DIRECTION('',(1.5643176942388E-011,-0.156434465060473,-0.987688340591932));
#572=DIRECTION('',(0.0,-1.0,0.0));
#573=CARTESIAN_POINT('',(11.6999999999,11.6999999999,0.0));
#574=DIRECTION('',(0.0,-0.0,1.0));
#575=DIRECTION('',(1.0,9.99982319171979E-011,0.0));
#576=DIRECTION('',(0.0,1.0,0.0));
#577=SURFACE_STYLE_FILL_AREA(#601);
#578=ORIENTED_EDGE('',*,*,#91,.T.);
#579=ORIENTED_EDGE('',*,*,#151,.F.);
#580=ORIENTED_EDGE('',*,*,#167,.F.);
#581=ORIENTED_EDGE('',*,*,#81,.T.);
#582=CARTESIAN_POINT('',(11.7,12.6999999999,0.0));
#583=DIRECTION('',(0.0,0.987688340598344,-0.156434465019989));
#584=DIRECTION('',(1.0,-0.0,0.0));
#585=DIRECTION('',(-1.0,0.0,0.0));
#586=DIRECTION('',(0.0,-1.0,0.0));
#587=CARTESIAN_POINT('',(1.0000000001,1.0000000001,0.0));
#588=DIRECTION('',(0.0,0.0,1.0));
#589=DIRECTION('',(-1.0,-9.99991200956174E-011,0.0));
#590=DIRECTION('',(-1.56433151635229E-011,0.156434465060473,-0.987688340591932));
#591=FILL_AREA_STYLE('',(#602));
#592=FILL_AREA_STYLE('',(#603));
#593=FILL_AREA_STYLE('',(#604));
#594=FILL_AREA_STYLE('',(#605));
#595=FILL_AREA_STYLE('',(#606));
#596=FILL_AREA_STYLE('',(#607));
#597=FILL_AREA_STYLE('',(#608));
#598=FILL_AREA_STYLE('',(#609));
#599=FILL_AREA_STYLE('',(#610));
#600=FILL_AREA_STYLE('',(#611));
#601=FILL_AREA_STYLE('',(#612));
#602=FILL_AREA_STYLE_COLOUR('',#613);
#603=FILL_AREA_STYLE_COLOUR('',#614);
#604=FILL_AREA_STYLE_COLOUR('',#615);
#605=FILL_AREA_STYLE_COLOUR('',#616);
#606=FILL_AREA_STYLE_COLOUR('',#617);
#607=FILL_AREA_STYLE_COLOUR('',#618);
#608=FILL_AREA_STYLE_COLOUR('',#619);
#609=FILL_AREA_STYLE_COLOUR('',#620);
#610=FILL_AREA_STYLE_COLOUR('',#621);
#611=FILL_AREA_STYLE_COLOUR('',#622);
#612=FILL_AREA_STYLE_COLOUR('',#623);
#613=COLOUR_RGB('',0.800000011920929,0.800000011920929,0.800000011920929);
#614=COLOUR_RGB('',0.800000011920929,0.800000011920929,0.800000011920929);
#615=COLOUR_RGB('',0.800000011920929,0.800000011920929,0.800000011920929);
#616=COLOUR_RGB('',0.800000011920929,0.800000011920929,0.800000011920929);
#617=COLOUR_RGB('',0.800000011920929,0.800000011920929,0.800000011920929);
#618=COLOUR_RGB('',0.800000011920929,0.800000011920929,0.800000011920929);
#619=COLOUR_RGB('',0.800000011920929,0.800000011920929,0.800000011920929);
#620=COLOUR_RGB('',0.800000011920929,0.800000011920929,0.800000011920929);
#621=COLOUR_RGB('',0.800000011920929,0.800000011920929,0.800000011920929);
#622=COLOUR_RGB('',0.800000011920929,0.800000011920929,0.800000011920929);
#623=COLOUR_RGB('',0.800000011920929,0.800000011920929,0.800000011920929);
#624=AXIS2_PLACEMENT_3D('PCS',#625,#626,#627);
#625=CARTESIAN_POINT('',(0.0,0.0,0.0));
#626=DIRECTION('',(0.0,0.0,1.0));
#627=DIRECTION('',(1.0,0.0,0.0));
#628=AXIS2_PLACEMENT_3D('MCS',#629,#630,#631);
#629=CARTESIAN_POINT('',(6.35,6.35,0.0));
#630=DIRECTION('',(0.0,0.0,1.0));
#631=DIRECTION('',(1.0,0.0,0.0));
#632=CONSTRUCTIVE_GEOMETRY_REPRESENTATION_RELATIONSHIP('coordinate systems',$,#65,#633);
#633=CONSTRUCTIVE_GEOMETRY_REPRESENTATION('coordinate systems',(#624,#628),#6);
ENDSEC;
END-ISO-10303-21;
