ISO-10303-21;
HEADER;
FILE_DESCRIPTION(('no description'),'unknown implementation level');
FILE_NAME('solidP6lIAf6CsCzlAjmqyep9_DfHLt8_1.STP','  ',('CIMSOURCE GmbH'),('CADClick - KiM GmbH - www.kimweb.de'),'unknown preprocess','ACIS','unknown authorization');
FILE_SCHEMA(('automotive_design'));
ENDSEC;
DATA;
#1=MECHANICAL_DESIGN_GEOMETRIC_PRESENTATION_REPRESENTATION(' ',(#10,#11,#12,#13,#14,#15,#16,#17,#18,#19,#20,#21,#22,#23,#24,#25,#26,#27,#28,#29,#30,#31,#32,#33,#34,#35,#36,#37,#38,#39,#40,#41,#42,#43,#44,#45,#46,#47,#48,#49,#50,#51,#52,#53,#54,#55,#56,#57,#58,#59,#60),#6);
#2=PRODUCT_DEFINITION_CONTEXT('',#61,'design');
#3=APPLICATION_PROTOCOL_DEFINITION('INTERNATIONAL STANDARD','automotive_design',1994,#61);
#4=PRODUCT_CATEGORY_RELATIONSHIP('NONE','NONE',#62,#63);
#5=SHAPE_DEFINITION_REPRESENTATION(#64,#65);
#6= (GEOMETRIC_REPRESENTATION_CONTEXT(3)GLOBAL_UNCERTAINTY_ASSIGNED_CONTEXT((#68))GLOBAL_UNIT_ASSIGNED_CONTEXT((#70,#71,#72))REPRESENTATION_CONTEXT('NONE','WORKSPACE'));
#10=STYLED_ITEM('',(#74),#75);
#11=STYLED_ITEM('',(#76),#77);
#12=STYLED_ITEM('',(#78),#79);
#13=STYLED_ITEM('',(#80),#81);
#14=STYLED_ITEM('',(#82),#83);
#15=STYLED_ITEM('',(#84),#85);
#16=STYLED_ITEM('',(#86),#87);
#17=STYLED_ITEM('',(#88),#89);
#18=STYLED_ITEM('',(#90),#91);
#19=STYLED_ITEM('',(#92),#93);
#20=STYLED_ITEM('',(#94),#95);
#21=STYLED_ITEM('',(#96),#97);
#22=STYLED_ITEM('',(#98),#99);
#23=STYLED_ITEM('',(#100),#101);
#24=STYLED_ITEM('',(#102),#103);
#25=STYLED_ITEM('',(#104),#105);
#26=STYLED_ITEM('',(#106),#107);
#27=STYLED_ITEM('',(#108),#109);
#28=STYLED_ITEM('',(#110),#111);
#29=STYLED_ITEM('',(#112),#113);
#30=STYLED_ITEM('',(#114),#115);
#31=STYLED_ITEM('',(#116),#117);
#32=STYLED_ITEM('',(#118),#119);
#33=STYLED_ITEM('',(#120),#121);
#34=STYLED_ITEM('',(#122),#123);
#35=STYLED_ITEM('',(#124),#125);
#36=STYLED_ITEM('',(#126),#127);
#37=STYLED_ITEM('',(#128),#129);
#38=STYLED_ITEM('',(#130),#131);
#39=STYLED_ITEM('',(#132),#133);
#40=STYLED_ITEM('',(#134),#135);
#41=STYLED_ITEM('',(#136),#137);
#42=STYLED_ITEM('',(#138),#139);
#43=STYLED_ITEM('',(#140),#141);
#44=STYLED_ITEM('',(#142),#143);
#45=STYLED_ITEM('',(#144),#145);
#46=STYLED_ITEM('',(#146),#147);
#47=STYLED_ITEM('',(#148),#149);
#48=STYLED_ITEM('',(#150),#151);
#49=STYLED_ITEM('',(#152),#153);
#50=STYLED_ITEM('',(#154),#155);
#51=STYLED_ITEM('',(#156),#157);
#52=STYLED_ITEM('',(#158),#159);
#53=STYLED_ITEM('',(#160),#161);
#54=STYLED_ITEM('',(#162),#163);
#55=STYLED_ITEM('',(#164),#165);
#56=STYLED_ITEM('',(#166),#167);
#57=STYLED_ITEM('',(#168),#169);
#58=STYLED_ITEM('',(#170),#171);
#59=STYLED_ITEM('',(#172),#173);
#60=STYLED_ITEM('',(#174),#175);
#61=APPLICATION_CONTEXT(' ');
#62=PRODUCT_CATEGORY('part','NONE');
#63=PRODUCT_RELATED_PRODUCT_CATEGORY('detail',' ',(#176));
#64=PRODUCT_DEFINITION_SHAPE('NONE','NONE',#177);
#65=ADVANCED_BREP_SHAPE_REPRESENTATION('1',(#171,#178),#6);
#68=UNCERTAINTY_MEASURE_WITH_UNIT(LENGTH_MEASURE(1.0E-006),#70,'','');
#70= (CONVERSION_BASED_UNIT('MILLIMETRE',#181)LENGTH_UNIT()NAMED_UNIT(#184));
#71= (NAMED_UNIT(#186)PLANE_ANGLE_UNIT()SI_UNIT($,.RADIAN.));
#72= (NAMED_UNIT(#186)SOLID_ANGLE_UNIT()SI_UNIT($,.STERADIAN.));
#74=PRESENTATION_STYLE_ASSIGNMENT((#192));
#75=VERTEX_POINT('',#193);
#76=PRESENTATION_STYLE_ASSIGNMENT((#194));
#77=ADVANCED_FACE('',(#195),#196,.T.);
#78=PRESENTATION_STYLE_ASSIGNMENT((#197));
#79=ADVANCED_FACE('',(#198),#199,.T.);
#80=PRESENTATION_STYLE_ASSIGNMENT((#200));
#81=ADVANCED_FACE('',(#201),#202,.T.);
#82=PRESENTATION_STYLE_ASSIGNMENT((#203));
#83=VERTEX_POINT('',#204);
#84=PRESENTATION_STYLE_ASSIGNMENT((#205));
#85=EDGE_CURVE('',#83,#87,#206,.T.);
#86=PRESENTATION_STYLE_ASSIGNMENT((#207));
#87=VERTEX_POINT('',#208);
#88=PRESENTATION_STYLE_ASSIGNMENT((#209));
#89=EDGE_CURVE('',#119,#111,#210,.T.);
#90=PRESENTATION_STYLE_ASSIGNMENT((#211));
#91=EDGE_CURVE('',#87,#111,#212,.T.);
#92=PRESENTATION_STYLE_ASSIGNMENT((#213));
#93=VERTEX_POINT('',#214);
#94=PRESENTATION_STYLE_ASSIGNMENT((#215));
#95=VERTEX_POINT('',#216);
#96=PRESENTATION_STYLE_ASSIGNMENT((#217));
#97=EDGE_CURVE('',#95,#149,#218,.T.);
#98=PRESENTATION_STYLE_ASSIGNMENT((#219));
#99=VERTEX_POINT('',#220);
#100=PRESENTATION_STYLE_ASSIGNMENT((#221));
#101=ADVANCED_FACE('',(#222),#223,.T.);
#102=PRESENTATION_STYLE_ASSIGNMENT((#224));
#103=EDGE_CURVE('',#157,#75,#225,.T.);
#104=PRESENTATION_STYLE_ASSIGNMENT((#226));
#105=EDGE_CURVE('',#143,#121,#227,.T.);
#106=PRESENTATION_STYLE_ASSIGNMENT((#228));
#107=VERTEX_POINT('',#229);
#108=PRESENTATION_STYLE_ASSIGNMENT((#230));
#109=EDGE_CURVE('',#95,#131,#231,.T.);
#110=PRESENTATION_STYLE_ASSIGNMENT((#232));
#111=VERTEX_POINT('',#233);
#112=PRESENTATION_STYLE_ASSIGNMENT((#234));
#113=EDGE_CURVE('',#107,#139,#235,.T.);
#114=PRESENTATION_STYLE_ASSIGNMENT((#236));
#115=VERTEX_POINT('',#237);
#116=PRESENTATION_STYLE_ASSIGNMENT((#238));
#117=EDGE_CURVE('',#93,#87,#239,.T.);
#118=PRESENTATION_STYLE_ASSIGNMENT((#240));
#119=VERTEX_POINT('',#241);
#120=PRESENTATION_STYLE_ASSIGNMENT((#242));
#121=VERTEX_POINT('',#243);
#122=PRESENTATION_STYLE_ASSIGNMENT((#244));
#123=ADVANCED_FACE('',(#245),#246,.T.);
#124=PRESENTATION_STYLE_ASSIGNMENT((#247));
#125=ADVANCED_FACE('',(#248),#249,.T.);
#126=PRESENTATION_STYLE_ASSIGNMENT((#250));
#127=EDGE_CURVE('',#99,#75,#251,.T.);
#128=PRESENTATION_STYLE_ASSIGNMENT((#252));
#129=EDGE_CURVE('',#93,#119,#253,.T.);
#130=PRESENTATION_STYLE_ASSIGNMENT((#254));
#131=VERTEX_POINT('',#255);
#132=PRESENTATION_STYLE_ASSIGNMENT((#256));
#133=ADVANCED_FACE('',(#257),#258,.T.);
#134=PRESENTATION_STYLE_ASSIGNMENT((#259));
#135=EDGE_CURVE('',#111,#149,#260,.T.);
#136=PRESENTATION_STYLE_ASSIGNMENT((#261));
#137=EDGE_CURVE('',#131,#157,#262,.T.);
#138=PRESENTATION_STYLE_ASSIGNMENT((#263));
#139=VERTEX_POINT('',#264);
#140=PRESENTATION_STYLE_ASSIGNMENT((#265));
#141=EDGE_CURVE('',#115,#83,#266,.T.);
#142=PRESENTATION_STYLE_ASSIGNMENT((#267));
#143=VERTEX_POINT('',#268);
#144=PRESENTATION_STYLE_ASSIGNMENT((#269));
#145=EDGE_CURVE('',#115,#93,#270,.T.);
#146=PRESENTATION_STYLE_ASSIGNMENT((#271));
#147=EDGE_CURVE('',#149,#99,#272,.T.);
#148=PRESENTATION_STYLE_ASSIGNMENT((#273));
#149=VERTEX_POINT('',#274);
#150=PRESENTATION_STYLE_ASSIGNMENT((#275));
#151=EDGE_CURVE('',#131,#99,#276,.T.);
#152=PRESENTATION_STYLE_ASSIGNMENT((#277));
#153=EDGE_CURVE('',#157,#143,#278,.T.);
#154=PRESENTATION_STYLE_ASSIGNMENT((#279));
#155=EDGE_CURVE('',#143,#107,#280,.T.);
#156=PRESENTATION_STYLE_ASSIGNMENT((#281));
#157=VERTEX_POINT('',#282);
#158=PRESENTATION_STYLE_ASSIGNMENT((#283));
#159=ADVANCED_FACE('',(#284),#285,.F.);
#160=PRESENTATION_STYLE_ASSIGNMENT((#286));
#161=ADVANCED_FACE('',(#287),#288,.T.);
#162=PRESENTATION_STYLE_ASSIGNMENT((#289));
#163=EDGE_CURVE('',#75,#121,#290,.T.);
#164=PRESENTATION_STYLE_ASSIGNMENT((#291));
#165=EDGE_CURVE('',#139,#83,#292,.T.);
#166=PRESENTATION_STYLE_ASSIGNMENT((#293));
#167=EDGE_CURVE('',#107,#115,#294,.T.);
#168=PRESENTATION_STYLE_ASSIGNMENT((#295));
#169=ADVANCED_FACE('',(#296),#297,.T.);
#170=PRESENTATION_STYLE_ASSIGNMENT((#298));
#171=MANIFOLD_SOLID_BREP('1',#299);
#172=PRESENTATION_STYLE_ASSIGNMENT((#300));
#173=EDGE_CURVE('',#121,#139,#301,.T.);
#174=PRESENTATION_STYLE_ASSIGNMENT((#302));
#175=EDGE_CURVE('',#119,#95,#303,.T.);
#176=PRODUCT('1','1','PART-1-DESC',(#304));
#177=PRODUCT_DEFINITION('NONE','NONE',#305,#2);
#178=AXIS2_PLACEMENT_3D('',#306,#307,#308);
#181=LENGTH_MEASURE_WITH_UNIT(LENGTH_MEASURE(1.0),#309);
#184=DIMENSIONAL_EXPONENTS(1.0,0.0,0.0,0.0,0.0,0.0,0.0);
#186=DIMENSIONAL_EXPONENTS(0.0,0.0,0.0,0.0,0.0,0.0,0.0);
#192=POINT_STYLE(' ',#310,POSITIVE_LENGTH_MEASURE(1.0E-006),#311);
#193=CARTESIAN_POINT('',(2.58093717038857,15.88,-7.18));
#194=SURFACE_STYLE_USAGE(.BOTH.,#312);
#195=FACE_OUTER_BOUND('',#313,.T.);
#196=PLANE('',#314);
#197=SURFACE_STYLE_USAGE(.BOTH.,#315);
#198=FACE_OUTER_BOUND('',#316,.T.);
#199=PLANE('',#317);
#200=SURFACE_STYLE_USAGE(.BOTH.,#318);
#201=FACE_OUTER_BOUND('',#319,.T.);
#202=PLANE('',#320);
#203=POINT_STYLE(' ',#321,POSITIVE_LENGTH_MEASURE(1.0E-006),#322);
#204=CARTESIAN_POINT('',(2.58094233227323,0.0,-7.18));
#205=CURVE_STYLE('',#323,POSITIVE_LENGTH_MEASURE(1.0E-006),#324);
#206=LINE('',#325,#326);
#207=POINT_STYLE(' ',#327,POSITIVE_LENGTH_MEASURE(1.0E-006),#328);
#208=CARTESIAN_POINT('',(13.2990628296114,0.0,-7.18));
#209=CURVE_STYLE('',#329,POSITIVE_LENGTH_MEASURE(1.0E-006),#330);
#210=LINE('',#331,#332);
#211=CURVE_STYLE('',#333,POSITIVE_LENGTH_MEASURE(1.0E-006),#334);
#212=LINE('',#335,#336);
#213=POINT_STYLE(' ',#337,POSITIVE_LENGTH_MEASURE(1.0E-006),#338);
#214=CARTESIAN_POINT('',(13.2990628296114,0.0,0.0));
#215=POINT_STYLE(' ',#339,POSITIVE_LENGTH_MEASURE(1.0E-006),#340);
#216=CARTESIAN_POINT('',(15.8799974190577,13.2990602486691,0.0));
#217=CURVE_STYLE('',#341,POSITIVE_LENGTH_MEASURE(1.0E-006),#342);
#218=LINE('',#343,#344);
#219=POINT_STYLE(' ',#345,POSITIVE_LENGTH_MEASURE(1.0E-006),#346);
#220=CARTESIAN_POINT('',(13.2990576677268,15.88,-7.18));
#221=SURFACE_STYLE_USAGE(.BOTH.,#347);
#222=FACE_OUTER_BOUND('',#348,.T.);
#223=PLANE('',#349);
#224=CURVE_STYLE('',#350,POSITIVE_LENGTH_MEASURE(1.0E-006),#351);
#225=LINE('',#352,#353);
#226=CURVE_STYLE('',#354,POSITIVE_LENGTH_MEASURE(1.0E-006),#355);
#227=LINE('',#356,#357);
#228=POINT_STYLE(' ',#358,POSITIVE_LENGTH_MEASURE(1.0E-006),#359);
#229=CARTESIAN_POINT('',(2.5809423323E-006,2.5809397513309,0.0));
#230=CURVE_STYLE('',#360,POSITIVE_LENGTH_MEASURE(1.0E-006),#361);
#231=LINE('',#362,#363);
#232=POINT_STYLE(' ',#364,POSITIVE_LENGTH_MEASURE(1.0E-006),#365);
#233=CARTESIAN_POINT('',(15.8800025809423,2.5809397513309,-7.18));
#234=CURVE_STYLE('',#366,POSITIVE_LENGTH_MEASURE(1.0E-006),#367);
#235=LINE('',#368,#369);
#236=POINT_STYLE(' ',#370,POSITIVE_LENGTH_MEASURE(1.0E-006),#371);
#237=CARTESIAN_POINT('',(2.58094233227323,0.0,0.0));
#238=CURVE_STYLE('',#372,POSITIVE_LENGTH_MEASURE(1.0E-006),#373);
#239=LINE('',#374,#375);
#240=POINT_STYLE(' ',#376,POSITIVE_LENGTH_MEASURE(1.0E-006),#377);
#241=CARTESIAN_POINT('',(15.8800025809423,2.5809397513309,0.0));
#242=POINT_STYLE(' ',#378,POSITIVE_LENGTH_MEASURE(1.0E-006),#379);
#243=CARTESIAN_POINT('',(-2.58094233229755E-006,13.2990602486691,-7.18));
#244=SURFACE_STYLE_USAGE(.BOTH.,#380);
#245=FACE_OUTER_BOUND('',#381,.T.);
#246=PLANE('',#382);
#247=SURFACE_STYLE_USAGE(.BOTH.,#383);
#248=FACE_OUTER_BOUND('',#384,.T.);
#249=PLANE('',#385);
#250=CURVE_STYLE('',#386,POSITIVE_LENGTH_MEASURE(1.0E-006),#387);
#251=LINE('',#388,#389);
#252=CURVE_STYLE('',#390,POSITIVE_LENGTH_MEASURE(1.0E-006),#391);
#253=LINE('',#392,#393);
#254=POINT_STYLE(' ',#394,POSITIVE_LENGTH_MEASURE(1.0E-006),#395);
#255=CARTESIAN_POINT('',(13.2990576677268,15.88,0.0));
#256=SURFACE_STYLE_USAGE(.BOTH.,#396);
#257=FACE_OUTER_BOUND('',#397,.T.);
#258=PLANE('',#398);
#259=CURVE_STYLE('',#399,POSITIVE_LENGTH_MEASURE(1.0E-006),#400);
#260=LINE('',#401,#402);
#261=CURVE_STYLE('',#403,POSITIVE_LENGTH_MEASURE(1.0E-006),#404);
#262=LINE('',#405,#406);
#263=POINT_STYLE(' ',#407,POSITIVE_LENGTH_MEASURE(1.0E-006),#408);
#264=CARTESIAN_POINT('',(2.5809423323E-006,2.5809397513309,-7.18));
#265=CURVE_STYLE('',#409,POSITIVE_LENGTH_MEASURE(1.0E-006),#410);
#266=LINE('',#411,#412);
#267=POINT_STYLE(' ',#413,POSITIVE_LENGTH_MEASURE(1.0E-006),#414);
#268=CARTESIAN_POINT('',(-2.58094233229755E-006,13.2990602486691,0.0));
#269=CURVE_STYLE('',#415,POSITIVE_LENGTH_MEASURE(1.0E-006),#416);
#270=LINE('',#417,#418);
#271=CURVE_STYLE('',#419,POSITIVE_LENGTH_MEASURE(1.0E-006),#420);
#272=LINE('',#421,#422);
#273=POINT_STYLE(' ',#423,POSITIVE_LENGTH_MEASURE(1.0E-006),#424);
#274=CARTESIAN_POINT('',(15.8799974190577,13.2990602486691,-7.18));
#275=CURVE_STYLE('',#425,POSITIVE_LENGTH_MEASURE(1.0E-006),#426);
#276=LINE('',#427,#428);
#277=CURVE_STYLE('',#429,POSITIVE_LENGTH_MEASURE(1.0E-006),#430);
#278=LINE('',#431,#432);
#279=CURVE_STYLE('',#433,POSITIVE_LENGTH_MEASURE(1.0E-006),#434);
#280=LINE('',#435,#436);
#281=POINT_STYLE(' ',#437,POSITIVE_LENGTH_MEASURE(1.0E-006),#438);
#282=CARTESIAN_POINT('',(2.58093717038857,15.88,0.0));
#283=SURFACE_STYLE_USAGE(.BOTH.,#439);
#284=FACE_OUTER_BOUND('',#440,.T.);
#285=PLANE('',#441);
#286=SURFACE_STYLE_USAGE(.BOTH.,#442);
#287=FACE_OUTER_BOUND('',#443,.T.);
#288=PLANE('',#444);
#289=CURVE_STYLE('',#445,POSITIVE_LENGTH_MEASURE(1.0E-006),#446);
#290=LINE('',#447,#448);
#291=CURVE_STYLE('',#449,POSITIVE_LENGTH_MEASURE(1.0E-006),#450);
#292=LINE('',#451,#452);
#293=CURVE_STYLE('',#453,POSITIVE_LENGTH_MEASURE(1.0E-006),#454);
#294=LINE('',#455,#456);
#295=SURFACE_STYLE_USAGE(.BOTH.,#457);
#296=FACE_OUTER_BOUND('',#458,.T.);
#297=PLANE('',#459);
#298=SURFACE_STYLE_USAGE(.BOTH.,#460);
#299=CLOSED_SHELL('',(#77,#123,#133,#161,#79,#81,#169,#125,#159,#101));
#300=CURVE_STYLE('',#461,POSITIVE_LENGTH_MEASURE(1.0E-006),#462);
#301=LINE('',#463,#464);
#302=CURVE_STYLE('',#465,POSITIVE_LENGTH_MEASURE(1.0E-006),#466);
#303=LINE('',#467,#468);
#304=PRODUCT_CONTEXT('',#61,'mechanical');
#305=PRODUCT_DEFINITION_FORMATION_WITH_SPECIFIED_SOURCE(' ','NONE',#176,.NOT_KNOWN.);
#306=CARTESIAN_POINT('',(0.0,0.0,0.0));
#307=DIRECTION('',(0.0,0.0,1.0));
#308=DIRECTION('',(1.0,0.0,0.0));
#309= (NAMED_UNIT(#184)LENGTH_UNIT()SI_UNIT(.MILLI.,.METRE.));
#310=PRE_DEFINED_MARKER('');
#311=COLOUR_RGB('',0.800000011920929,0.800000011920929,0.800000011920929);
#312=SURFACE_SIDE_STYLE('',(#470));
#313=EDGE_LOOP('',(#471,#472,#473,#474));
#314=AXIS2_PLACEMENT_3D('',#475,#476,#477);
#315=SURFACE_SIDE_STYLE('',(#478));
#316=EDGE_LOOP('',(#479,#480,#481,#482));
#317=AXIS2_PLACEMENT_3D('',#483,#484,#485);
#318=SURFACE_SIDE_STYLE('',(#486));
#319=EDGE_LOOP('',(#487,#488,#489,#490));
#320=AXIS2_PLACEMENT_3D('',#491,#492,#493);
#321=PRE_DEFINED_MARKER('');
#322=COLOUR_RGB('',0.800000011920929,0.800000011920929,0.800000011920929);
#323=DRAUGHTING_PRE_DEFINED_CURVE_FONT('continuous');
#324=COLOUR_RGB('',0.800000011920929,0.800000011920929,0.800000011920929);
#325=CARTESIAN_POINT('',(2.58094233227323,0.0,-7.18));
#326=VECTOR('',#494,1.0);
#327=PRE_DEFINED_MARKER('');
#328=COLOUR_RGB('',0.800000011920929,0.800000011920929,0.800000011920929);
#329=DRAUGHTING_PRE_DEFINED_CURVE_FONT('continuous');
#330=COLOUR_RGB('',0.800000011920929,0.800000011920929,0.800000011920929);
#331=CARTESIAN_POINT('',(15.8800025809423,2.5809397513309,0.0));
#332=VECTOR('',#495,1.0);
#333=DRAUGHTING_PRE_DEFINED_CURVE_FONT('continuous');
#334=COLOUR_RGB('',0.800000011920929,0.800000011920929,0.800000011920929);
#335=CARTESIAN_POINT('',(13.2990628296114,0.0,-7.18));
#336=VECTOR('',#496,1.0);
#337=PRE_DEFINED_MARKER('');
#338=COLOUR_RGB('',0.800000011920929,0.800000011920929,0.800000011920929);
#339=PRE_DEFINED_MARKER('');
#340=COLOUR_RGB('',0.800000011920929,0.800000011920929,0.800000011920929);
#341=DRAUGHTING_PRE_DEFINED_CURVE_FONT('continuous');
#342=COLOUR_RGB('',0.800000011920929,0.800000011920929,0.800000011920929);
#343=CARTESIAN_POINT('',(15.8799974190577,13.2990602486691,0.0));
#344=VECTOR('',#497,1.0);
#345=PRE_DEFINED_MARKER('');
#346=COLOUR_RGB('',0.800000011920929,0.800000011920929,0.800000011920929);
#347=SURFACE_SIDE_STYLE('',(#498));
#348=EDGE_LOOP('',(#499,#500,#501,#502,#503,#504,#505,#506));
#349=AXIS2_PLACEMENT_3D('',#507,#508,#509);
#350=DRAUGHTING_PRE_DEFINED_CURVE_FONT('continuous');
#351=COLOUR_RGB('',0.800000011920929,0.800000011920929,0.800000011920929);
#352=CARTESIAN_POINT('',(2.58093717038857,15.88,0.0));
#353=VECTOR('',#510,1.0);
#354=DRAUGHTING_PRE_DEFINED_CURVE_FONT('continuous');
#355=COLOUR_RGB('',0.800000011920929,0.800000011920929,0.800000011920929);
#356=CARTESIAN_POINT('',(-2.58094233229755E-006,13.2990602486691,0.0));
#357=VECTOR('',#511,1.0);
#358=PRE_DEFINED_MARKER('');
#359=COLOUR_RGB('',0.800000011920929,0.800000011920929,0.800000011920929);
#360=DRAUGHTING_PRE_DEFINED_CURVE_FONT('continuous');
#361=COLOUR_RGB('',0.800000011920929,0.800000011920929,0.800000011920929);
#362=CARTESIAN_POINT('',(15.8799974190577,13.2990602486691,0.0));
#363=VECTOR('',#512,1.0);
#364=PRE_DEFINED_MARKER('');
#365=COLOUR_RGB('',0.800000011920929,0.800000011920929,0.800000011920929);
#366=DRAUGHTING_PRE_DEFINED_CURVE_FONT('continuous');
#367=COLOUR_RGB('',0.800000011920929,0.800000011920929,0.800000011920929);
#368=CARTESIAN_POINT('',(2.5809423323E-006,2.5809397513309,0.0));
#369=VECTOR('',#513,1.0);
#370=PRE_DEFINED_MARKER('');
#371=COLOUR_RGB('',0.800000011920929,0.800000011920929,0.800000011920929);
#372=DRAUGHTING_PRE_DEFINED_CURVE_FONT('continuous');
#373=COLOUR_RGB('',0.800000011920929,0.800000011920929,0.800000011920929);
#374=CARTESIAN_POINT('',(13.2990628296114,0.0,0.0));
#375=VECTOR('',#514,1.0);
#376=PRE_DEFINED_MARKER('');
#377=COLOUR_RGB('',0.800000011920929,0.800000011920929,0.800000011920929);
#378=PRE_DEFINED_MARKER('');
#379=COLOUR_RGB('',0.800000011920929,0.800000011920929,0.800000011920929);
#380=SURFACE_SIDE_STYLE('',(#515));
#381=EDGE_LOOP('',(#516,#517,#518,#519));
#382=AXIS2_PLACEMENT_3D('',#520,#521,#522);
#383=SURFACE_SIDE_STYLE('',(#523));
#384=EDGE_LOOP('',(#524,#525,#526,#527));
#385=AXIS2_PLACEMENT_3D('',#528,#529,#530);
#386=DRAUGHTING_PRE_DEFINED_CURVE_FONT('continuous');
#387=COLOUR_RGB('',0.800000011920929,0.800000011920929,0.800000011920929);
#388=CARTESIAN_POINT('',(13.2990576677268,15.88,-7.18));
#389=VECTOR('',#531,1.0);
#390=DRAUGHTING_PRE_DEFINED_CURVE_FONT('continuous');
#391=COLOUR_RGB('',0.800000011920929,0.800000011920929,0.800000011920929);
#392=CARTESIAN_POINT('',(13.2990628296114,0.0,0.0));
#393=VECTOR('',#532,1.0);
#394=PRE_DEFINED_MARKER('');
#395=COLOUR_RGB('',0.800000011920929,0.800000011920929,0.800000011920929);
#396=SURFACE_SIDE_STYLE('',(#533));
#397=EDGE_LOOP('',(#534,#535,#536,#537));
#398=AXIS2_PLACEMENT_3D('',#538,#539,#540);
#399=DRAUGHTING_PRE_DEFINED_CURVE_FONT('continuous');
#400=COLOUR_RGB('',0.800000011920929,0.800000011920929,0.800000011920929);
#401=CARTESIAN_POINT('',(15.8800025809423,2.5809397513309,-7.18));
#402=VECTOR('',#541,1.0);
#403=DRAUGHTING_PRE_DEFINED_CURVE_FONT('continuous');
#404=COLOUR_RGB('',0.800000011920929,0.800000011920929,0.800000011920929);
#405=CARTESIAN_POINT('',(13.2990576677268,15.88,0.0));
#406=VECTOR('',#542,1.0);
#407=PRE_DEFINED_MARKER('');
#408=COLOUR_RGB('',0.800000011920929,0.800000011920929,0.800000011920929);
#409=DRAUGHTING_PRE_DEFINED_CURVE_FONT('continuous');
#410=COLOUR_RGB('',0.800000011920929,0.800000011920929,0.800000011920929);
#411=CARTESIAN_POINT('',(2.58094233227323,0.0,0.0));
#412=VECTOR('',#543,1.0);
#413=PRE_DEFINED_MARKER('');
#414=COLOUR_RGB('',0.800000011920929,0.800000011920929,0.800000011920929);
#415=DRAUGHTING_PRE_DEFINED_CURVE_FONT('continuous');
#416=COLOUR_RGB('',0.800000011920929,0.800000011920929,0.800000011920929);
#417=CARTESIAN_POINT('',(2.58094233227323,0.0,0.0));
#418=VECTOR('',#544,1.0);
#419=DRAUGHTING_PRE_DEFINED_CURVE_FONT('continuous');
#420=COLOUR_RGB('',0.800000011920929,0.800000011920929,0.800000011920929);
#421=CARTESIAN_POINT('',(15.8799974190577,13.2990602486691,-7.18));
#422=VECTOR('',#545,1.0);
#423=PRE_DEFINED_MARKER('');
#424=COLOUR_RGB('',0.800000011920929,0.800000011920929,0.800000011920929);
#425=DRAUGHTING_PRE_DEFINED_CURVE_FONT('continuous');
#426=COLOUR_RGB('',0.800000011920929,0.800000011920929,0.800000011920929);
#427=CARTESIAN_POINT('',(13.2990576677268,15.88,0.0));
#428=VECTOR('',#546,1.0);
#429=DRAUGHTING_PRE_DEFINED_CURVE_FONT('continuous');
#430=COLOUR_RGB('',0.800000011920929,0.800000011920929,0.800000011920929);
#431=CARTESIAN_POINT('',(2.58093717038857,15.88,0.0));
#432=VECTOR('',#547,1.0);
#433=DRAUGHTING_PRE_DEFINED_CURVE_FONT('continuous');
#434=COLOUR_RGB('',0.800000011920929,0.800000011920929,0.800000011920929);
#435=CARTESIAN_POINT('',(-2.5809423323E-006,13.2990602486691,0.0));
#436=VECTOR('',#548,1.0);
#437=PRE_DEFINED_MARKER('');
#438=COLOUR_RGB('',0.800000011920929,0.800000011920929,0.800000011920929);
#439=SURFACE_SIDE_STYLE('',(#549));
#440=EDGE_LOOP('',(#550,#551,#552,#553,#554,#555,#556,#557));
#441=AXIS2_PLACEMENT_3D('',#558,#559,#560);
#442=SURFACE_SIDE_STYLE('',(#561));
#443=EDGE_LOOP('',(#562,#563,#564,#565));
#444=AXIS2_PLACEMENT_3D('',#566,#567,#568);
#445=DRAUGHTING_PRE_DEFINED_CURVE_FONT('continuous');
#446=COLOUR_RGB('',0.800000011920929,0.800000011920929,0.800000011920929);
#447=CARTESIAN_POINT('',(2.58093717038857,15.88,-7.18));
#448=VECTOR('',#569,1.0);
#449=DRAUGHTING_PRE_DEFINED_CURVE_FONT('continuous');
#450=COLOUR_RGB('',0.800000011920929,0.800000011920929,0.800000011920929);
#451=CARTESIAN_POINT('',(2.5809423323E-006,2.5809397513309,-7.18));
#452=VECTOR('',#570,1.0);
#453=DRAUGHTING_PRE_DEFINED_CURVE_FONT('continuous');
#454=COLOUR_RGB('',0.800000011920929,0.800000011920929,0.800000011920929);
#455=CARTESIAN_POINT('',(2.5809423323E-006,2.5809397513309,0.0));
#456=VECTOR('',#571,1.0);
#457=SURFACE_SIDE_STYLE('',(#572));
#458=EDGE_LOOP('',(#573,#574,#575,#576));
#459=AXIS2_PLACEMENT_3D('',#577,#578,#579);
#460=SURFACE_SIDE_STYLE('',(#580));
#461=DRAUGHTING_PRE_DEFINED_CURVE_FONT('continuous');
#462=COLOUR_RGB('',0.800000011920929,0.800000011920929,0.800000011920929);
#463=CARTESIAN_POINT('',(-2.5809423323E-006,13.2990602486691,-7.18));
#464=VECTOR('',#581,1.0);
#465=DRAUGHTING_PRE_DEFINED_CURVE_FONT('continuous');
#466=COLOUR_RGB('',0.800000011920929,0.800000011920929,0.800000011920929);
#467=CARTESIAN_POINT('',(15.8800025809423,2.5809397513309,0.0));
#468=VECTOR('',#582,1.0);
#470=SURFACE_STYLE_FILL_AREA(#583);
#471=ORIENTED_EDGE('',*,*,#91,.T.);
#472=ORIENTED_EDGE('',*,*,#89,.F.);
#473=ORIENTED_EDGE('',*,*,#129,.F.);
#474=ORIENTED_EDGE('',*,*,#117,.T.);
#475=CARTESIAN_POINT('',(13.2990628296114,0.0,0.0));
#476=DIRECTION('',(0.707106781186547,-0.707106781186548,0.0));
#477=DIRECTION('',(-0.707106781186548,-0.707106781186547,-0.0));
#478=SURFACE_STYLE_FILL_AREA(#584);
#479=ORIENTED_EDGE('',*,*,#163,.T.);
#480=ORIENTED_EDGE('',*,*,#105,.F.);
#481=ORIENTED_EDGE('',*,*,#153,.F.);
#482=ORIENTED_EDGE('',*,*,#103,.T.);
#483=CARTESIAN_POINT('',(2.58093717038857,15.88,0.0));
#484=DIRECTION('',(-0.707106781186548,0.707106781186548,0.0));
#485=DIRECTION('',(0.707106781186548,0.707106781186548,-0.0));
#486=SURFACE_STYLE_FILL_AREA(#585);
#487=ORIENTED_EDGE('',*,*,#173,.T.);
#488=ORIENTED_EDGE('',*,*,#113,.F.);
#489=ORIENTED_EDGE('',*,*,#155,.F.);
#490=ORIENTED_EDGE('',*,*,#105,.T.);
#491=CARTESIAN_POINT('',(-2.58094233229755E-006,13.2990602486691,0.0));
#492=DIRECTION('',(-0.999999999999884,-4.8160352982422E-007,-0.0));
#493=DIRECTION('',(-4.8160352982422E-007,0.999999999999884,0.0));
#494=DIRECTION('',(1.0,0.0,0.0));
#495=DIRECTION('',(0.0,0.0,-1.0));
#496=DIRECTION('',(0.707106781186548,0.707106781186547,0.0));
#497=DIRECTION('',(0.0,0.0,-1.0));
#498=SURFACE_STYLE_FILL_AREA(#586);
#499=ORIENTED_EDGE('',*,*,#145,.T.);
#500=ORIENTED_EDGE('',*,*,#129,.T.);
#501=ORIENTED_EDGE('',*,*,#175,.T.);
#502=ORIENTED_EDGE('',*,*,#109,.T.);
#503=ORIENTED_EDGE('',*,*,#137,.T.);
#504=ORIENTED_EDGE('',*,*,#153,.T.);
#505=ORIENTED_EDGE('',*,*,#155,.T.);
#506=ORIENTED_EDGE('',*,*,#167,.T.);
#507=CARTESIAN_POINT('',(7.94,7.94,0.0));
#508=DIRECTION('',(0.0,0.0,1.0));
#509=DIRECTION('',(1.0,0.0,0.0));
#510=DIRECTION('',(0.0,0.0,-1.0));
#511=DIRECTION('',(0.0,0.0,-1.0));
#512=DIRECTION('',(-0.707106781186548,0.707106781186548,0.0));
#513=DIRECTION('',(0.0,0.0,-1.0));
#514=DIRECTION('',(0.0,0.0,-1.0));
#515=SURFACE_STYLE_FILL_AREA(#587);
#516=ORIENTED_EDGE('',*,*,#135,.T.);
#517=ORIENTED_EDGE('',*,*,#97,.F.);
#518=ORIENTED_EDGE('',*,*,#175,.F.);
#519=ORIENTED_EDGE('',*,*,#89,.T.);
#520=CARTESIAN_POINT('',(15.8800025809423,2.5809397513309,0.0));
#521=DIRECTION('',(0.999999999999884,4.8160352990663E-007,0.0));
#522=DIRECTION('',(4.8160352990663E-007,-0.999999999999884,-0.0));
#523=SURFACE_STYLE_FILL_AREA(#588);
#524=ORIENTED_EDGE('',*,*,#85,.T.);
#525=ORIENTED_EDGE('',*,*,#117,.F.);
#526=ORIENTED_EDGE('',*,*,#145,.F.);
#527=ORIENTED_EDGE('',*,*,#141,.T.);
#528=CARTESIAN_POINT('',(2.58094233227323,0.0,0.0));
#529=DIRECTION('',(0.0,-1.0,-0.0));
#530=DIRECTION('',(-1.0,0.0,-0.0));
#531=DIRECTION('',(-1.0,0.0,0.0));
#532=DIRECTION('',(0.707106781186548,0.707106781186547,0.0));
#533=SURFACE_STYLE_FILL_AREA(#589);
#534=ORIENTED_EDGE('',*,*,#147,.T.);
#535=ORIENTED_EDGE('',*,*,#151,.F.);
#536=ORIENTED_EDGE('',*,*,#109,.F.);
#537=ORIENTED_EDGE('',*,*,#97,.T.);
#538=CARTESIAN_POINT('',(15.8799974190577,13.2990602486691,0.0));
#539=DIRECTION('',(0.707106781186548,0.707106781186548,0.0));
#540=DIRECTION('',(0.707106781186548,-0.707106781186548,-0.0));
#541=DIRECTION('',(-4.8160352990663E-007,0.999999999999884,0.0));
#542=DIRECTION('',(-1.0,0.0,0.0));
#543=DIRECTION('',(0.0,0.0,-1.0));
#544=DIRECTION('',(1.0,0.0,0.0));
#545=DIRECTION('',(-0.707106781186548,0.707106781186548,0.0));
#546=DIRECTION('',(0.0,0.0,-1.0));
#547=DIRECTION('',(-0.707106781186548,-0.707106781186548,0.0));
#548=DIRECTION('',(4.8160352982422E-007,-0.999999999999884,0.0));
#549=SURFACE_STYLE_FILL_AREA(#590);
#550=ORIENTED_EDGE('',*,*,#91,.F.);
#551=ORIENTED_EDGE('',*,*,#85,.F.);
#552=ORIENTED_EDGE('',*,*,#165,.F.);
#553=ORIENTED_EDGE('',*,*,#173,.F.);
#554=ORIENTED_EDGE('',*,*,#163,.F.);
#555=ORIENTED_EDGE('',*,*,#127,.F.);
#556=ORIENTED_EDGE('',*,*,#147,.F.);
#557=ORIENTED_EDGE('',*,*,#135,.F.);
#558=CARTESIAN_POINT('',(7.94,7.94,-7.18));
#559=DIRECTION('',(0.0,0.0,1.0));
#560=DIRECTION('',(1.0,0.0,0.0));
#561=SURFACE_STYLE_FILL_AREA(#591);
#562=ORIENTED_EDGE('',*,*,#127,.T.);
#563=ORIENTED_EDGE('',*,*,#103,.F.);
#564=ORIENTED_EDGE('',*,*,#137,.F.);
#565=ORIENTED_EDGE('',*,*,#151,.T.);
#566=CARTESIAN_POINT('',(13.2990576677268,15.88,0.0));
#567=DIRECTION('',(0.0,1.0,0.0));
#568=DIRECTION('',(1.0,-0.0,-0.0));
#569=DIRECTION('',(-0.707106781186548,-0.707106781186548,0.0));
#570=DIRECTION('',(0.707106781186548,-0.707106781186547,0.0));
#571=DIRECTION('',(0.707106781186548,-0.707106781186547,0.0));
#572=SURFACE_STYLE_FILL_AREA(#592);
#573=ORIENTED_EDGE('',*,*,#165,.T.);
#574=ORIENTED_EDGE('',*,*,#141,.F.);
#575=ORIENTED_EDGE('',*,*,#167,.F.);
#576=ORIENTED_EDGE('',*,*,#113,.T.);
#577=CARTESIAN_POINT('',(2.5809423323E-006,2.5809397513309,0.0));
#578=DIRECTION('',(-0.707106781186547,-0.707106781186548,-0.0));
#579=DIRECTION('',(-0.707106781186548,0.707106781186547,0.0));
#580=SURFACE_STYLE_FILL_AREA(#593);
#581=DIRECTION('',(4.8160352982422E-007,-0.999999999999884,0.0));
#582=DIRECTION('',(-4.8160352990663E-007,0.999999999999884,0.0));
#583=FILL_AREA_STYLE('',(#594));
#584=FILL_AREA_STYLE('',(#595));
#585=FILL_AREA_STYLE('',(#596));
#586=FILL_AREA_STYLE('',(#597));
#587=FILL_AREA_STYLE('',(#598));
#588=FILL_AREA_STYLE('',(#599));
#589=FILL_AREA_STYLE('',(#600));
#590=FILL_AREA_STYLE('',(#601));
#591=FILL_AREA_STYLE('',(#602));
#592=FILL_AREA_STYLE('',(#603));
#593=FILL_AREA_STYLE('',(#604));
#594=FILL_AREA_STYLE_COLOUR('',#605);
#595=FILL_AREA_STYLE_COLOUR('',#606);
#596=FILL_AREA_STYLE_COLOUR('',#607);
#597=FILL_AREA_STYLE_COLOUR('',#608);
#598=FILL_AREA_STYLE_COLOUR('',#609);
#599=FILL_AREA_STYLE_COLOUR('',#610);
#600=FILL_AREA_STYLE_COLOUR('',#611);
#601=FILL_AREA_STYLE_COLOUR('',#612);
#602=FILL_AREA_STYLE_COLOUR('',#613);
#603=FILL_AREA_STYLE_COLOUR('',#614);
#604=FILL_AREA_STYLE_COLOUR('',#615);
#605=COLOUR_RGB('',0.800000011920929,0.800000011920929,0.800000011920929);
#606=COLOUR_RGB('',0.800000011920929,0.800000011920929,0.800000011920929);
#607=COLOUR_RGB('',0.800000011920929,0.800000011920929,0.800000011920929);
#608=COLOUR_RGB('',0.800000011920929,0.800000011920929,0.800000011920929);
#609=COLOUR_RGB('',0.800000011920929,0.800000011920929,0.800000011920929);
#610=COLOUR_RGB('',0.800000011920929,0.800000011920929,0.800000011920929);
#611=COLOUR_RGB('',0.800000011920929,0.800000011920929,0.800000011920929);
#612=COLOUR_RGB('',0.800000011920929,0.800000011920929,0.800000011920929);
#613=COLOUR_RGB('',0.800000011920929,0.800000011920929,0.800000011920929);
#614=COLOUR_RGB('',0.800000011920929,0.800000011920929,0.800000011920929);
#615=COLOUR_RGB('',0.800000011920929,0.800000011920929,0.800000011920929);
#616=AXIS2_PLACEMENT_3D('PCS',#617,#618,#619);
#617=CARTESIAN_POINT('',(0.0,0.0,0.0));
#618=DIRECTION('',(0.0,0.0,1.0));
#619=DIRECTION('',(1.0,0.0,0.0));
#620=AXIS2_PLACEMENT_3D('MCS',#621,#622,#623);
#621=CARTESIAN_POINT('',(7.94,7.94,0.0));
#622=DIRECTION('',(0.0,0.0,1.0));
#623=DIRECTION('',(1.0,0.0,0.0));
#624=CONSTRUCTIVE_GEOMETRY_REPRESENTATION_RELATIONSHIP('coordinate systems',$,#65,#625);
#625=CONSTRUCTIVE_GEOMETRY_REPRESENTATION('coordinate systems',(#616,#620),#6);
ENDSEC;
END-ISO-10303-21;
