ISO-10303-21;
HEADER;
FILE_DESCRIPTION(('no description'),'unknown implementation level');
FILE_NAME('solidM6zq7iUFZ1BexGuz6yEJi9e_Ndk_1.STP','  ',('CIMSOURCE GmbH'),('CADClick - KiM GmbH - www.kimweb.de'),'unknown preprocess','ACIS','unknown authorization');
FILE_SCHEMA(('automotive_design'));
ENDSEC;
DATA;
#1=MECHANICAL_DESIGN_GEOMETRIC_PRESENTATION_REPRESENTATION(' ',(#10,#11,#12,#13,#14,#15,#16,#17,#18,#19,#20,#21,#22,#23,#24,#25,#26,#27,#28,#29,#30,#31,#32,#33,#34,#35,#36,#37,#38,#39,#40,#41,#42,#43,#44,#45,#46,#47,#48),#6);
#2=PRODUCT_DEFINITION_CONTEXT('',#49,'design');
#3=APPLICATION_PROTOCOL_DEFINITION('INTERNATIONAL STANDARD','automotive_design',1994,#49);
#4=PRODUCT_CATEGORY_RELATIONSHIP('NONE','NONE',#50,#51);
#5=SHAPE_DEFINITION_REPRESENTATION(#52,#53);
#6= (GEOMETRIC_REPRESENTATION_CONTEXT(3)GLOBAL_UNCERTAINTY_ASSIGNED_CONTEXT((#56))GLOBAL_UNIT_ASSIGNED_CONTEXT((#58,#59,#60))REPRESENTATION_CONTEXT('NONE','WORKSPACE'));
#10=STYLED_ITEM('',(#62),#63);
#11=STYLED_ITEM('',(#64),#65);
#12=STYLED_ITEM('',(#66),#67);
#13=STYLED_ITEM('',(#68),#69);
#14=STYLED_ITEM('',(#70),#71);
#15=STYLED_ITEM('',(#72),#73);
#16=STYLED_ITEM('',(#74),#75);
#17=STYLED_ITEM('',(#76),#77);
#18=STYLED_ITEM('',(#78),#79);
#19=STYLED_ITEM('',(#80),#81);
#20=STYLED_ITEM('',(#82),#83);
#21=STYLED_ITEM('',(#84),#85);
#22=STYLED_ITEM('',(#86),#87);
#23=STYLED_ITEM('',(#88),#89);
#24=STYLED_ITEM('',(#90),#91);
#25=STYLED_ITEM('',(#92),#93);
#26=STYLED_ITEM('',(#94),#95);
#27=STYLED_ITEM('',(#96),#97);
#28=STYLED_ITEM('',(#98),#99);
#29=STYLED_ITEM('',(#100),#101);
#30=STYLED_ITEM('',(#102),#103);
#31=STYLED_ITEM('',(#104),#105);
#32=STYLED_ITEM('',(#106),#107);
#33=STYLED_ITEM('',(#108),#109);
#34=STYLED_ITEM('',(#110),#111);
#35=STYLED_ITEM('',(#112),#113);
#36=STYLED_ITEM('',(#114),#115);
#37=STYLED_ITEM('',(#116),#117);
#38=STYLED_ITEM('',(#118),#119);
#39=STYLED_ITEM('',(#120),#121);
#40=STYLED_ITEM('',(#122),#123);
#41=STYLED_ITEM('',(#124),#125);
#42=STYLED_ITEM('',(#126),#127);
#43=STYLED_ITEM('',(#128),#129);
#44=STYLED_ITEM('',(#130),#131);
#45=STYLED_ITEM('',(#132),#133);
#46=STYLED_ITEM('',(#134),#135);
#47=STYLED_ITEM('',(#136),#137);
#48=STYLED_ITEM('',(#138),#139);
#49=APPLICATION_CONTEXT(' ');
#50=PRODUCT_CATEGORY('part','NONE');
#51=PRODUCT_RELATED_PRODUCT_CATEGORY('detail',' ',(#140));
#52=PRODUCT_DEFINITION_SHAPE('NONE','NONE',#141);
#53=ADVANCED_BREP_SHAPE_REPRESENTATION('1',(#79,#142),#6);
#56=UNCERTAINTY_MEASURE_WITH_UNIT(LENGTH_MEASURE(1.0E-006),#58,'','');
#58= (CONVERSION_BASED_UNIT('MILLIMETRE',#145)LENGTH_UNIT()NAMED_UNIT(#148));
#59= (NAMED_UNIT(#150)PLANE_ANGLE_UNIT()SI_UNIT($,.RADIAN.));
#60= (NAMED_UNIT(#150)SOLID_ANGLE_UNIT()SI_UNIT($,.STERADIAN.));
#62=PRESENTATION_STYLE_ASSIGNMENT((#156));
#63=ADVANCED_FACE('',(#157),#158,.T.);
#64=PRESENTATION_STYLE_ASSIGNMENT((#159));
#65=EDGE_CURVE('',#121,#111,#160,.T.);
#66=PRESENTATION_STYLE_ASSIGNMENT((#161));
#67=ADVANCED_FACE('',(#162),#163,.T.);
#68=PRESENTATION_STYLE_ASSIGNMENT((#164));
#69=ADVANCED_FACE('',(#165),#166,.T.);
#70=PRESENTATION_STYLE_ASSIGNMENT((#167));
#71=ADVANCED_FACE('',(#168),#169,.T.);
#72=PRESENTATION_STYLE_ASSIGNMENT((#170));
#73=ADVANCED_FACE('',(#171),#172,.F.);
#74=PRESENTATION_STYLE_ASSIGNMENT((#173));
#75=EDGE_CURVE('',#131,#97,#174,.T.);
#76=PRESENTATION_STYLE_ASSIGNMENT((#175));
#77=EDGE_CURVE('',#105,#135,#176,.T.);
#78=PRESENTATION_STYLE_ASSIGNMENT((#177));
#79=MANIFOLD_SOLID_BREP('1',#178);
#80=PRESENTATION_STYLE_ASSIGNMENT((#179));
#81=VERTEX_POINT('',#180);
#82=PRESENTATION_STYLE_ASSIGNMENT((#181));
#83=EDGE_CURVE('',#133,#121,#182,.T.);
#84=PRESENTATION_STYLE_ASSIGNMENT((#183));
#85=EDGE_CURVE('',#111,#113,#184,.T.);
#86=PRESENTATION_STYLE_ASSIGNMENT((#185));
#87=ADVANCED_FACE('',(#186),#187,.T.);
#88=PRESENTATION_STYLE_ASSIGNMENT((#188));
#89=EDGE_CURVE('',#113,#119,#189,.T.);
#90=PRESENTATION_STYLE_ASSIGNMENT((#190));
#91=EDGE_CURVE('',#81,#119,#191,.T.);
#92=PRESENTATION_STYLE_ASSIGNMENT((#192));
#93=ADVANCED_FACE('',(#193),#194,.T.);
#94=PRESENTATION_STYLE_ASSIGNMENT((#195));
#95=VERTEX_POINT('',#196);
#96=PRESENTATION_STYLE_ASSIGNMENT((#197));
#97=VERTEX_POINT('',#198);
#98=PRESENTATION_STYLE_ASSIGNMENT((#199));
#99=EDGE_CURVE('',#131,#105,#200,.T.);
#100=PRESENTATION_STYLE_ASSIGNMENT((#201));
#101=EDGE_CURVE('',#121,#95,#202,.T.);
#102=PRESENTATION_STYLE_ASSIGNMENT((#203));
#103=EDGE_CURVE('',#95,#81,#204,.T.);
#104=PRESENTATION_STYLE_ASSIGNMENT((#205));
#105=VERTEX_POINT('',#206);
#106=PRESENTATION_STYLE_ASSIGNMENT((#207));
#107=EDGE_CURVE('',#135,#137,#208,.T.);
#108=PRESENTATION_STYLE_ASSIGNMENT((#209));
#109=ADVANCED_FACE('',(#210),#211,.T.);
#110=PRESENTATION_STYLE_ASSIGNMENT((#212));
#111=VERTEX_POINT('',#213);
#112=PRESENTATION_STYLE_ASSIGNMENT((#214));
#113=VERTEX_POINT('',#215);
#114=PRESENTATION_STYLE_ASSIGNMENT((#216));
#115=EDGE_CURVE('',#137,#111,#217,.T.);
#116=PRESENTATION_STYLE_ASSIGNMENT((#218));
#117=EDGE_CURVE('',#95,#113,#219,.T.);
#118=PRESENTATION_STYLE_ASSIGNMENT((#220));
#119=VERTEX_POINT('',#221);
#120=PRESENTATION_STYLE_ASSIGNMENT((#222));
#121=VERTEX_POINT('',#223);
#122=PRESENTATION_STYLE_ASSIGNMENT((#224));
#123=EDGE_CURVE('',#81,#131,#225,.T.);
#124=PRESENTATION_STYLE_ASSIGNMENT((#226));
#125=EDGE_CURVE('',#105,#133,#227,.T.);
#126=PRESENTATION_STYLE_ASSIGNMENT((#228));
#127=EDGE_CURVE('',#133,#137,#229,.T.);
#128=PRESENTATION_STYLE_ASSIGNMENT((#230));
#129=EDGE_CURVE('',#119,#97,#231,.T.);
#130=PRESENTATION_STYLE_ASSIGNMENT((#232));
#131=VERTEX_POINT('',#233);
#132=PRESENTATION_STYLE_ASSIGNMENT((#234));
#133=VERTEX_POINT('',#235);
#134=PRESENTATION_STYLE_ASSIGNMENT((#236));
#135=VERTEX_POINT('',#237);
#136=PRESENTATION_STYLE_ASSIGNMENT((#238));
#137=VERTEX_POINT('',#239);
#138=PRESENTATION_STYLE_ASSIGNMENT((#240));
#139=EDGE_CURVE('',#97,#135,#241,.T.);
#140=PRODUCT('1','1','PART-1-DESC',(#242));
#141=PRODUCT_DEFINITION('NONE','NONE',#243,#2);
#142=AXIS2_PLACEMENT_3D('',#244,#245,#246);
#145=LENGTH_MEASURE_WITH_UNIT(LENGTH_MEASURE(1.0),#247);
#148=DIMENSIONAL_EXPONENTS(1.0,0.0,0.0,0.0,0.0,0.0,0.0);
#150=DIMENSIONAL_EXPONENTS(0.0,0.0,0.0,0.0,0.0,0.0,0.0);
#156=SURFACE_STYLE_USAGE(.BOTH.,#248);
#157=FACE_OUTER_BOUND('',#249,.T.);
#158=CYLINDRICAL_SURFACE('',#250,0.8);
#159=CURVE_STYLE('',#251,POSITIVE_LENGTH_MEASURE(1.0E-006),#252);
#160=LINE('',#253,#254);
#161=SURFACE_STYLE_USAGE(.BOTH.,#255);
#162=FACE_OUTER_BOUND('',#256,.T.);
#163=PLANE('',#257);
#164=SURFACE_STYLE_USAGE(.BOTH.,#258);
#165=FACE_OUTER_BOUND('',#259,.T.);
#166=PLANE('',#260);
#167=SURFACE_STYLE_USAGE(.BOTH.,#261);
#168=FACE_OUTER_BOUND('',#262,.T.);
#169=PLANE('',#263);
#170=SURFACE_STYLE_USAGE(.BOTH.,#264);
#171=FACE_OUTER_BOUND('',#265,.T.);
#172=PLANE('',#266);
#173=CURVE_STYLE('',#267,POSITIVE_LENGTH_MEASURE(1.0E-006),#268);
#174=LINE('',#269,#270);
#175=CURVE_STYLE('',#271,POSITIVE_LENGTH_MEASURE(1.0E-006),#272);
#176=LINE('',#273,#274);
#177=SURFACE_STYLE_USAGE(.BOTH.,#275);
#178=CLOSED_SHELL('',(#87,#69,#109,#93,#63,#71,#73,#67));
#179=POINT_STYLE(' ',#276,POSITIVE_LENGTH_MEASURE(1.0E-006),#277);
#180=CARTESIAN_POINT('',(8.66025403793099,14.99999999995,0.0));
#181=CURVE_STYLE('',#278,POSITIVE_LENGTH_MEASURE(1.0E-006),#279);
#182=CIRCLE('',#280,0.800000000000001);
#183=CURVE_STYLE('',#281,POSITIVE_LENGTH_MEASURE(1.0E-006),#282);
#184=LINE('',#283,#284);
#185=SURFACE_STYLE_USAGE(.BOTH.,#285);
#186=FACE_OUTER_BOUND('',#286,.T.);
#187=CYLINDRICAL_SURFACE('',#287,0.800000000000001);
#188=CURVE_STYLE('',#288,POSITIVE_LENGTH_MEASURE(1.0E-006),#289);
#189=CIRCLE('',#290,0.800000000000002);
#190=CURVE_STYLE('',#291,POSITIVE_LENGTH_MEASURE(1.0E-006),#292);
#191=LINE('',#293,#294);
#192=SURFACE_STYLE_USAGE(.BOTH.,#295);
#193=FACE_OUTER_BOUND('',#296,.T.);
#194=PLANE('',#297);
#195=POINT_STYLE(' ',#298,POSITIVE_LENGTH_MEASURE(1.0E-006),#299);
#196=CARTESIAN_POINT('',(10.0458946838995,15.0,0.0));
#197=POINT_STYLE(' ',#300,POSITIVE_LENGTH_MEASURE(1.0E-006),#301);
#198=CARTESIAN_POINT('',(0.692820323027551,1.2,-6.55));
#199=CURVE_STYLE('',#302,POSITIVE_LENGTH_MEASURE(1.0E-006),#303);
#200=CIRCLE('',#304,0.8);
#201=CURVE_STYLE('',#305,POSITIVE_LENGTH_MEASURE(1.0E-006),#306);
#202=LINE('',#307,#308);
#203=CURVE_STYLE('',#309,POSITIVE_LENGTH_MEASURE(1.0E-006),#310);
#204=CIRCLE('',#311,0.800000000000002);
#205=POINT_STYLE(' ',#312,POSITIVE_LENGTH_MEASURE(1.0E-006),#313);
#206=CARTESIAN_POINT('',(1.3856406460551,0.0,0.0));
#207=CURVE_STYLE('',#314,POSITIVE_LENGTH_MEASURE(1.0E-006),#315);
#208=LINE('',#316,#317);
#209=SURFACE_STYLE_USAGE(.BOTH.,#318);
#210=FACE_OUTER_BOUND('',#319,.T.);
#211=CYLINDRICAL_SURFACE('',#320,0.800000000000002);
#212=POINT_STYLE(' ',#321,POSITIVE_LENGTH_MEASURE(1.0E-006),#322);
#213=CARTESIAN_POINT('',(18.0133283986297,1.19999999995,-6.55));
#214=POINT_STYLE(' ',#323,POSITIVE_LENGTH_MEASURE(1.0E-006),#324);
#215=CARTESIAN_POINT('',(10.0458946838995,15.0,-6.55));
#216=CURVE_STYLE('',#325,POSITIVE_LENGTH_MEASURE(1.0E-006),#326);
#217=CIRCLE('',#327,0.800000000000001);
#218=CURVE_STYLE('',#328,POSITIVE_LENGTH_MEASURE(1.0E-006),#329);
#219=LINE('',#330,#331);
#220=POINT_STYLE(' ',#332,POSITIVE_LENGTH_MEASURE(1.0E-006),#333);
#221=CARTESIAN_POINT('',(8.66025403793099,14.99999999995,-6.55));
#222=POINT_STYLE(' ',#334,POSITIVE_LENGTH_MEASURE(1.0E-006),#335);
#223=CARTESIAN_POINT('',(18.0133283986297,1.19999999995,0.0));
#224=CURVE_STYLE('',#336,POSITIVE_LENGTH_MEASURE(1.0E-006),#337);
#225=LINE('',#338,#339);
#226=CURVE_STYLE('',#340,POSITIVE_LENGTH_MEASURE(1.0E-006),#341);
#227=LINE('',#342,#343);
#228=CURVE_STYLE('',#344,POSITIVE_LENGTH_MEASURE(1.0E-006),#345);
#229=LINE('',#346,#347);
#230=CURVE_STYLE('',#348,POSITIVE_LENGTH_MEASURE(1.0E-006),#349);
#231=LINE('',#350,#351);
#232=POINT_STYLE(' ',#352,POSITIVE_LENGTH_MEASURE(1.0E-006),#353);
#233=CARTESIAN_POINT('',(0.692820323027551,1.2,0.0));
#234=POINT_STYLE(' ',#354,POSITIVE_LENGTH_MEASURE(1.0E-006),#355);
#235=CARTESIAN_POINT('',(17.3205080756888,0.0,0.0));
#236=POINT_STYLE(' ',#356,POSITIVE_LENGTH_MEASURE(1.0E-006),#357);
#237=CARTESIAN_POINT('',(1.3856406460551,0.0,-6.55));
#238=POINT_STYLE(' ',#358,POSITIVE_LENGTH_MEASURE(1.0E-006),#359);
#239=CARTESIAN_POINT('',(17.3205080756888,0.0,-6.55));
#240=CURVE_STYLE('',#360,POSITIVE_LENGTH_MEASURE(1.0E-006),#361);
#241=CIRCLE('',#362,0.8);
#242=PRODUCT_CONTEXT('',#49,'mechanical');
#243=PRODUCT_DEFINITION_FORMATION_WITH_SPECIFIED_SOURCE(' ','NONE',#140,.NOT_KNOWN.);
#244=CARTESIAN_POINT('',(0.0,0.0,0.0));
#245=DIRECTION('',(0.0,0.0,1.0));
#246=DIRECTION('',(1.0,0.0,0.0));
#247= (NAMED_UNIT(#148)LENGTH_UNIT()SI_UNIT(.MILLI.,.METRE.));
#248=SURFACE_SIDE_STYLE('',(#364));
#249=EDGE_LOOP('',(#365,#366,#367,#368));
#250=AXIS2_PLACEMENT_3D('',#369,#370,#371);
#251=DRAUGHTING_PRE_DEFINED_CURVE_FONT('continuous');
#252=COLOUR_RGB('',0.800000011920929,0.800000011920929,0.800000011920929);
#253=CARTESIAN_POINT('',(18.0133283986297,1.19999999995,0.0));
#254=VECTOR('',#372,1.0);
#255=SURFACE_SIDE_STYLE('',(#373));
#256=EDGE_LOOP('',(#374,#375,#376,#377,#378,#379));
#257=AXIS2_PLACEMENT_3D('',#380,#381,#382);
#258=SURFACE_SIDE_STYLE('',(#383));
#259=EDGE_LOOP('',(#384,#385,#386,#387));
#260=AXIS2_PLACEMENT_3D('',#388,#389,#390);
#261=SURFACE_SIDE_STYLE('',(#391));
#262=EDGE_LOOP('',(#392,#393,#394,#395));
#263=AXIS2_PLACEMENT_3D('',#396,#397,#398);
#264=SURFACE_SIDE_STYLE('',(#399));
#265=EDGE_LOOP('',(#400,#401,#402,#403,#404,#405));
#266=AXIS2_PLACEMENT_3D('',#406,#407,#408);
#267=DRAUGHTING_PRE_DEFINED_CURVE_FONT('continuous');
#268=COLOUR_RGB('',0.800000011920929,0.800000011920929,0.800000011920929);
#269=CARTESIAN_POINT('',(0.692820323027551,1.2,0.0));
#270=VECTOR('',#409,1.0);
#271=DRAUGHTING_PRE_DEFINED_CURVE_FONT('continuous');
#272=COLOUR_RGB('',0.800000011920929,0.800000011920929,0.800000011920929);
#273=CARTESIAN_POINT('',(1.3856406460551,0.0,0.0));
#274=VECTOR('',#410,1.0);
#275=SURFACE_SIDE_STYLE('',(#411));
#276=PRE_DEFINED_MARKER('');
#277=COLOUR_RGB('',0.800000011920929,0.800000011920929,0.800000011920929);
#278=DRAUGHTING_PRE_DEFINED_CURVE_FONT('continuous');
#279=COLOUR_RGB('',0.800000011920929,0.800000011920929,0.800000011920929);
#280=AXIS2_PLACEMENT_3D('',#412,#413,#414);
#281=DRAUGHTING_PRE_DEFINED_CURVE_FONT('continuous');
#282=COLOUR_RGB('',0.800000011920929,0.800000011920929,0.800000011920929);
#283=CARTESIAN_POINT('',(18.0133283987163,1.2,-6.55));
#284=VECTOR('',#415,1.0);
#285=SURFACE_SIDE_STYLE('',(#416));
#286=EDGE_LOOP('',(#417,#418,#419,#420));
#287=AXIS2_PLACEMENT_3D('',#421,#422,#423);
#288=DRAUGHTING_PRE_DEFINED_CURVE_FONT('continuous');
#289=COLOUR_RGB('',0.800000011920929,0.800000011920929,0.800000011920929);
#290=AXIS2_PLACEMENT_3D('',#424,#425,#426);
#291=DRAUGHTING_PRE_DEFINED_CURVE_FONT('continuous');
#292=COLOUR_RGB('',0.800000011920929,0.800000011920929,0.800000011920929);
#293=CARTESIAN_POINT('',(8.66025403793099,14.99999999995,0.0));
#294=VECTOR('',#427,1.0);
#295=SURFACE_SIDE_STYLE('',(#428));
#296=EDGE_LOOP('',(#429,#430,#431,#432));
#297=AXIS2_PLACEMENT_3D('',#433,#434,#435);
#298=PRE_DEFINED_MARKER('');
#299=COLOUR_RGB('',0.800000011920929,0.800000011920929,0.800000011920929);
#300=PRE_DEFINED_MARKER('');
#301=COLOUR_RGB('',0.800000011920929,0.800000011920929,0.800000011920929);
#302=DRAUGHTING_PRE_DEFINED_CURVE_FONT('continuous');
#303=COLOUR_RGB('',0.800000011920929,0.800000011920929,0.800000011920929);
#304=AXIS2_PLACEMENT_3D('',#436,#437,#438);
#305=DRAUGHTING_PRE_DEFINED_CURVE_FONT('continuous');
#306=COLOUR_RGB('',0.800000011920929,0.800000011920929,0.800000011920929);
#307=CARTESIAN_POINT('',(18.0133283987163,1.2,0.0));
#308=VECTOR('',#439,1.0);
#309=DRAUGHTING_PRE_DEFINED_CURVE_FONT('continuous');
#310=COLOUR_RGB('',0.800000011920929,0.800000011920929,0.800000011920929);
#311=AXIS2_PLACEMENT_3D('',#440,#441,#442);
#312=PRE_DEFINED_MARKER('');
#313=COLOUR_RGB('',0.800000011920929,0.800000011920929,0.800000011920929);
#314=DRAUGHTING_PRE_DEFINED_CURVE_FONT('continuous');
#315=COLOUR_RGB('',0.800000011920929,0.800000011920929,0.800000011920929);
#316=CARTESIAN_POINT('',(1.3856406460551,0.0,-6.55));
#317=VECTOR('',#443,1.0);
#318=SURFACE_SIDE_STYLE('',(#444));
#319=EDGE_LOOP('',(#445,#446,#447,#448));
#320=AXIS2_PLACEMENT_3D('',#449,#450,#451);
#321=PRE_DEFINED_MARKER('');
#322=COLOUR_RGB('',0.800000011920929,0.800000011920929,0.800000011920929);
#323=PRE_DEFINED_MARKER('');
#324=COLOUR_RGB('',0.800000011920929,0.800000011920929,0.800000011920929);
#325=DRAUGHTING_PRE_DEFINED_CURVE_FONT('continuous');
#326=COLOUR_RGB('',0.800000011920929,0.800000011920929,0.800000011920929);
#327=AXIS2_PLACEMENT_3D('',#452,#453,#454);
#328=DRAUGHTING_PRE_DEFINED_CURVE_FONT('continuous');
#329=COLOUR_RGB('',0.800000011920929,0.800000011920929,0.800000011920929);
#330=CARTESIAN_POINT('',(10.0458946838995,15.0,0.0));
#331=VECTOR('',#455,1.0);
#332=PRE_DEFINED_MARKER('');
#333=COLOUR_RGB('',0.800000011920929,0.800000011920929,0.800000011920929);
#334=PRE_DEFINED_MARKER('');
#335=COLOUR_RGB('',0.800000011920929,0.800000011920929,0.800000011920929);
#336=DRAUGHTING_PRE_DEFINED_CURVE_FONT('continuous');
#337=COLOUR_RGB('',0.800000011920929,0.800000011920929,0.800000011920929);
#338=CARTESIAN_POINT('',(8.66025403784439,15.0,0.0));
#339=VECTOR('',#456,1.0);
#340=DRAUGHTING_PRE_DEFINED_CURVE_FONT('continuous');
#341=COLOUR_RGB('',0.800000011920929,0.800000011920929,0.800000011920929);
#342=CARTESIAN_POINT('',(1.3856406460551,0.0,0.0));
#343=VECTOR('',#457,1.0);
#344=DRAUGHTING_PRE_DEFINED_CURVE_FONT('continuous');
#345=COLOUR_RGB('',0.800000011920929,0.800000011920929,0.800000011920929);
#346=CARTESIAN_POINT('',(17.3205080756888,0.0,0.0));
#347=VECTOR('',#458,1.0);
#348=DRAUGHTING_PRE_DEFINED_CURVE_FONT('continuous');
#349=COLOUR_RGB('',0.800000011920929,0.800000011920929,0.800000011920929);
#350=CARTESIAN_POINT('',(8.66025403784439,15.0,-6.55));
#351=VECTOR('',#459,1.0);
#352=PRE_DEFINED_MARKER('');
#353=COLOUR_RGB('',0.800000011920929,0.800000011920929,0.800000011920929);
#354=PRE_DEFINED_MARKER('');
#355=COLOUR_RGB('',0.800000011920929,0.800000011920929,0.800000011920929);
#356=PRE_DEFINED_MARKER('');
#357=COLOUR_RGB('',0.800000011920929,0.800000011920929,0.800000011920929);
#358=PRE_DEFINED_MARKER('');
#359=COLOUR_RGB('',0.800000011920929,0.800000011920929,0.800000011920929);
#360=DRAUGHTING_PRE_DEFINED_CURVE_FONT('continuous');
#361=COLOUR_RGB('',0.800000011920929,0.800000011920929,0.800000011920929);
#362=AXIS2_PLACEMENT_3D('',#460,#461,#462);
#364=SURFACE_STYLE_FILL_AREA(#463);
#365=ORIENTED_EDGE('',*,*,#139,.T.);
#366=ORIENTED_EDGE('',*,*,#77,.F.);
#367=ORIENTED_EDGE('',*,*,#99,.F.);
#368=ORIENTED_EDGE('',*,*,#75,.T.);
#369=CARTESIAN_POINT('',(1.38564064622831,0.8000000001,0.0));
#370=DIRECTION('',(-0.0,-0.0,1.0));
#371=DIRECTION('',(-0.866025403892692,0.499999999812499,0.0));
#372=DIRECTION('',(0.0,0.0,-1.0));
#373=SURFACE_STYLE_FILL_AREA(#464);
#374=ORIENTED_EDGE('',*,*,#125,.T.);
#375=ORIENTED_EDGE('',*,*,#83,.T.);
#376=ORIENTED_EDGE('',*,*,#101,.T.);
#377=ORIENTED_EDGE('',*,*,#103,.T.);
#378=ORIENTED_EDGE('',*,*,#123,.T.);
#379=ORIENTED_EDGE('',*,*,#99,.T.);
#380=CARTESIAN_POINT('',(9.35307436087194,5.4,0.0));
#381=DIRECTION('',(0.0,0.0,1.0));
#382=DIRECTION('',(1.0,0.0,0.0));
#383=SURFACE_STYLE_FILL_AREA(#465);
#384=ORIENTED_EDGE('',*,*,#85,.T.);
#385=ORIENTED_EDGE('',*,*,#117,.F.);
#386=ORIENTED_EDGE('',*,*,#101,.F.);
#387=ORIENTED_EDGE('',*,*,#65,.T.);
#388=CARTESIAN_POINT('',(18.0133283986297,1.19999999995,0.0));
#389=DIRECTION('',(0.866025403784439,0.5,0.0));
#390=DIRECTION('',(0.5,-0.866025403784439,-0.0));
#391=SURFACE_STYLE_FILL_AREA(#466);
#392=ORIENTED_EDGE('',*,*,#107,.T.);
#393=ORIENTED_EDGE('',*,*,#127,.F.);
#394=ORIENTED_EDGE('',*,*,#125,.F.);
#395=ORIENTED_EDGE('',*,*,#77,.T.);
#396=CARTESIAN_POINT('',(1.3856406460551,0.0,0.0));
#397=DIRECTION('',(0.0,-1.0,-0.0));
#398=DIRECTION('',(-1.0,0.0,-0.0));
#399=SURFACE_STYLE_FILL_AREA(#467);
#400=ORIENTED_EDGE('',*,*,#115,.F.);
#401=ORIENTED_EDGE('',*,*,#107,.F.);
#402=ORIENTED_EDGE('',*,*,#139,.F.);
#403=ORIENTED_EDGE('',*,*,#129,.F.);
#404=ORIENTED_EDGE('',*,*,#89,.F.);
#405=ORIENTED_EDGE('',*,*,#85,.F.);
#406=CARTESIAN_POINT('',(9.35307436087194,5.4,-6.55));
#407=DIRECTION('',(0.0,0.0,1.0));
#408=DIRECTION('',(1.0,0.0,0.0));
#409=DIRECTION('',(0.0,0.0,-1.0));
#410=DIRECTION('',(0.0,0.0,-1.0));
#411=SURFACE_STYLE_FILL_AREA(#468);
#412=CARTESIAN_POINT('',(17.3205080755156,0.800000000100001,0.0));
#413=DIRECTION('',(0.0,0.0,1.0));
#414=DIRECTION('',(2.16506812478201E-010,-1.0,0.0));
#415=DIRECTION('',(-0.5,0.866025403784439,0.0));
#416=SURFACE_STYLE_FILL_AREA(#469);
#417=ORIENTED_EDGE('',*,*,#115,.T.);
#418=ORIENTED_EDGE('',*,*,#65,.F.);
#419=ORIENTED_EDGE('',*,*,#83,.F.);
#420=ORIENTED_EDGE('',*,*,#127,.T.);
#421=CARTESIAN_POINT('',(17.3205080755156,0.800000000100001,0.0));
#422=DIRECTION('',(-0.0,-0.0,1.0));
#423=DIRECTION('',(2.16506812478201E-010,-1.0,0.0));
#424=CARTESIAN_POINT('',(9.35307436087194,14.5999999998,-6.55));
#425=DIRECTION('',(0.0,-0.0,1.0));
#426=DIRECTION('',(0.866025403676183,0.500000000187505,0.0));
#427=DIRECTION('',(0.0,0.0,-1.0));
#428=SURFACE_STYLE_FILL_AREA(#470);
#429=ORIENTED_EDGE('',*,*,#129,.T.);
#430=ORIENTED_EDGE('',*,*,#75,.F.);
#431=ORIENTED_EDGE('',*,*,#123,.F.);
#432=ORIENTED_EDGE('',*,*,#91,.T.);
#433=CARTESIAN_POINT('',(8.66025403793099,14.99999999995,0.0));
#434=DIRECTION('',(-0.866025403784439,0.5,0.0));
#435=DIRECTION('',(0.5,0.866025403784439,-0.0));
#436=CARTESIAN_POINT('',(1.38564064622831,0.8000000001,0.0));
#437=DIRECTION('',(0.0,0.0,1.0));
#438=DIRECTION('',(-0.866025403892692,0.499999999812499,0.0));
#439=DIRECTION('',(-0.5,0.866025403784439,0.0));
#440=CARTESIAN_POINT('',(9.35307436087194,14.5999999998,0.0));
#441=DIRECTION('',(0.0,-0.0,1.0));
#442=DIRECTION('',(0.866025403676183,0.500000000187505,0.0));
#443=DIRECTION('',(1.0,0.0,0.0));
#444=SURFACE_STYLE_FILL_AREA(#471);
#445=ORIENTED_EDGE('',*,*,#89,.T.);
#446=ORIENTED_EDGE('',*,*,#91,.F.);
#447=ORIENTED_EDGE('',*,*,#103,.F.);
#448=ORIENTED_EDGE('',*,*,#117,.T.);
#449=CARTESIAN_POINT('',(9.35307436087194,14.5999999998,0.0));
#450=DIRECTION('',(-0.0,-0.0,1.0));
#451=DIRECTION('',(0.866025403676183,0.500000000187505,0.0));
#452=CARTESIAN_POINT('',(17.3205080755156,0.800000000100001,-6.55));
#453=DIRECTION('',(0.0,0.0,1.0));
#454=DIRECTION('',(2.16506812478201E-010,-1.0,0.0));
#455=DIRECTION('',(0.0,0.0,-1.0));
#456=DIRECTION('',(-0.5,-0.866025403784439,0.0));
#457=DIRECTION('',(1.0,0.0,0.0));
#458=DIRECTION('',(0.0,0.0,-1.0));
#459=DIRECTION('',(-0.5,-0.866025403784439,0.0));
#460=CARTESIAN_POINT('',(1.38564064622831,0.8000000001,-6.55));
#461=DIRECTION('',(0.0,0.0,1.0));
#462=DIRECTION('',(-0.866025403892692,0.499999999812499,0.0));
#463=FILL_AREA_STYLE('',(#472));
#464=FILL_AREA_STYLE('',(#473));
#465=FILL_AREA_STYLE('',(#474));
#466=FILL_AREA_STYLE('',(#475));
#467=FILL_AREA_STYLE('',(#476));
#468=FILL_AREA_STYLE('',(#477));
#469=FILL_AREA_STYLE('',(#478));
#470=FILL_AREA_STYLE('',(#479));
#471=FILL_AREA_STYLE('',(#480));
#472=FILL_AREA_STYLE_COLOUR('',#481);
#473=FILL_AREA_STYLE_COLOUR('',#482);
#474=FILL_AREA_STYLE_COLOUR('',#483);
#475=FILL_AREA_STYLE_COLOUR('',#484);
#476=FILL_AREA_STYLE_COLOUR('',#485);
#477=FILL_AREA_STYLE_COLOUR('',#486);
#478=FILL_AREA_STYLE_COLOUR('',#487);
#479=FILL_AREA_STYLE_COLOUR('',#488);
#480=FILL_AREA_STYLE_COLOUR('',#489);
#481=COLOUR_RGB('',0.800000011920929,0.800000011920929,0.800000011920929);
#482=COLOUR_RGB('',0.800000011920929,0.800000011920929,0.800000011920929);
#483=COLOUR_RGB('',0.800000011920929,0.800000011920929,0.800000011920929);
#484=COLOUR_RGB('',0.800000011920929,0.800000011920929,0.800000011920929);
#485=COLOUR_RGB('',0.800000011920929,0.800000011920929,0.800000011920929);
#486=COLOUR_RGB('',0.800000011920929,0.800000011920929,0.800000011920929);
#487=COLOUR_RGB('',0.800000011920929,0.800000011920929,0.800000011920929);
#488=COLOUR_RGB('',0.800000011920929,0.800000011920929,0.800000011920929);
#489=COLOUR_RGB('',0.800000011920929,0.800000011920929,0.800000011920929);
#490=AXIS2_PLACEMENT_3D('PCS',#491,#492,#493);
#491=CARTESIAN_POINT('',(0.0,0.0,0.0));
#492=DIRECTION('',(0.0,0.0,1.0));
#493=DIRECTION('',(1.0,0.0,0.0));
#494=AXIS2_PLACEMENT_3D('MCS',#495,#496,#497);
#495=CARTESIAN_POINT('',(9.35307436,5.4,0.0));
#496=DIRECTION('',(0.0,0.0,1.0));
#497=DIRECTION('',(1.0,0.0,0.0));
#498=CONSTRUCTIVE_GEOMETRY_REPRESENTATION_RELATIONSHIP('coordinate systems',$,#53,#499);
#499=CONSTRUCTIVE_GEOMETRY_REPRESENTATION('coordinate systems',(#490,#494),#6);
ENDSEC;
END-ISO-10303-21;
