ISO-10303-21;
HEADER;
FILE_DESCRIPTION(('no description'),'unknown implementation level');
FILE_NAME('solidyibQ9TFKweq__3udCIn1_f6W07c_1.STP','  ',('CIMSOURCE GmbH'),('CADClick - KiM GmbH - www.kimweb.de'),'unknown preprocess','ACIS','unknown authorization');
FILE_SCHEMA(('automotive_design'));
ENDSEC;
DATA;
#1=MECHANICAL_DESIGN_GEOMETRIC_PRESENTATION_REPRESENTATION(' ',(#10,#11,#12,#13,#14,#15,#16,#17,#18,#19,#20,#21,#22,#23,#24,#25,#26,#27,#28,#29,#30,#31,#32,#33,#34,#35,#36,#37,#38,#39,#40,#41,#42,#43,#44,#45,#46,#47,#48),#6);
#2=PRODUCT_DEFINITION_CONTEXT('',#49,'design');
#3=APPLICATION_PROTOCOL_DEFINITION('INTERNATIONAL STANDARD','automotive_design',1994,#49);
#4=PRODUCT_CATEGORY_RELATIONSHIP('NONE','NONE',#50,#51);
#5=SHAPE_DEFINITION_REPRESENTATION(#52,#53);
#6= (GEOMETRIC_REPRESENTATION_CONTEXT(3)GLOBAL_UNCERTAINTY_ASSIGNED_CONTEXT((#56))GLOBAL_UNIT_ASSIGNED_CONTEXT((#58,#59,#60))REPRESENTATION_CONTEXT('NONE','WORKSPACE'));
#10=STYLED_ITEM('',(#62),#63);
#11=STYLED_ITEM('',(#64),#65);
#12=STYLED_ITEM('',(#66),#67);
#13=STYLED_ITEM('',(#68),#69);
#14=STYLED_ITEM('',(#70),#71);
#15=STYLED_ITEM('',(#72),#73);
#16=STYLED_ITEM('',(#74),#75);
#17=STYLED_ITEM('',(#76),#77);
#18=STYLED_ITEM('',(#78),#79);
#19=STYLED_ITEM('',(#80),#81);
#20=STYLED_ITEM('',(#82),#83);
#21=STYLED_ITEM('',(#84),#85);
#22=STYLED_ITEM('',(#86),#87);
#23=STYLED_ITEM('',(#88),#89);
#24=STYLED_ITEM('',(#90),#91);
#25=STYLED_ITEM('',(#92),#93);
#26=STYLED_ITEM('',(#94),#95);
#27=STYLED_ITEM('',(#96),#97);
#28=STYLED_ITEM('',(#98),#99);
#29=STYLED_ITEM('',(#100),#101);
#30=STYLED_ITEM('',(#102),#103);
#31=STYLED_ITEM('',(#104),#105);
#32=STYLED_ITEM('',(#106),#107);
#33=STYLED_ITEM('',(#108),#109);
#34=STYLED_ITEM('',(#110),#111);
#35=STYLED_ITEM('',(#112),#113);
#36=STYLED_ITEM('',(#114),#115);
#37=STYLED_ITEM('',(#116),#117);
#38=STYLED_ITEM('',(#118),#119);
#39=STYLED_ITEM('',(#120),#121);
#40=STYLED_ITEM('',(#122),#123);
#41=STYLED_ITEM('',(#124),#125);
#42=STYLED_ITEM('',(#126),#127);
#43=STYLED_ITEM('',(#128),#129);
#44=STYLED_ITEM('',(#130),#131);
#45=STYLED_ITEM('',(#132),#133);
#46=STYLED_ITEM('',(#134),#135);
#47=STYLED_ITEM('',(#136),#137);
#48=STYLED_ITEM('',(#138),#139);
#49=APPLICATION_CONTEXT(' ');
#50=PRODUCT_CATEGORY('part','NONE');
#51=PRODUCT_RELATED_PRODUCT_CATEGORY('detail',' ',(#140));
#52=PRODUCT_DEFINITION_SHAPE('NONE','NONE',#141);
#53=ADVANCED_BREP_SHAPE_REPRESENTATION('1',(#129,#142),#6);
#56=UNCERTAINTY_MEASURE_WITH_UNIT(LENGTH_MEASURE(1.0E-006),#58,'','');
#58= (CONVERSION_BASED_UNIT('MILLIMETRE',#145)LENGTH_UNIT()NAMED_UNIT(#148));
#59= (NAMED_UNIT(#150)PLANE_ANGLE_UNIT()SI_UNIT($,.RADIAN.));
#60= (NAMED_UNIT(#150)SOLID_ANGLE_UNIT()SI_UNIT($,.STERADIAN.));
#62=PRESENTATION_STYLE_ASSIGNMENT((#156));
#63=VERTEX_POINT('',#157);
#64=PRESENTATION_STYLE_ASSIGNMENT((#158));
#65=VERTEX_POINT('',#159);
#66=PRESENTATION_STYLE_ASSIGNMENT((#160));
#67=EDGE_CURVE('',#107,#63,#161,.T.);
#68=PRESENTATION_STYLE_ASSIGNMENT((#162));
#69=ADVANCED_FACE('',(#163),#164,.F.);
#70=PRESENTATION_STYLE_ASSIGNMENT((#165));
#71=VERTEX_POINT('',#166);
#72=PRESENTATION_STYLE_ASSIGNMENT((#167));
#73=VERTEX_POINT('',#168);
#74=PRESENTATION_STYLE_ASSIGNMENT((#169));
#75=ADVANCED_FACE('',(#170),#171,.T.);
#76=PRESENTATION_STYLE_ASSIGNMENT((#172));
#77=ADVANCED_FACE('',(#173),#174,.T.);
#78=PRESENTATION_STYLE_ASSIGNMENT((#175));
#79=EDGE_CURVE('',#109,#93,#176,.T.);
#80=PRESENTATION_STYLE_ASSIGNMENT((#177));
#81=ADVANCED_FACE('',(#178),#179,.T.);
#82=PRESENTATION_STYLE_ASSIGNMENT((#180));
#83=ADVANCED_FACE('',(#181),#182,.T.);
#84=PRESENTATION_STYLE_ASSIGNMENT((#183));
#85=EDGE_CURVE('',#103,#127,#184,.T.);
#86=PRESENTATION_STYLE_ASSIGNMENT((#185));
#87=EDGE_CURVE('',#73,#127,#186,.T.);
#88=PRESENTATION_STYLE_ASSIGNMENT((#187));
#89=ADVANCED_FACE('',(#188),#189,.T.);
#90=PRESENTATION_STYLE_ASSIGNMENT((#190));
#91=ADVANCED_FACE('',(#191),#192,.T.);
#92=PRESENTATION_STYLE_ASSIGNMENT((#193));
#93=VERTEX_POINT('',#194);
#94=PRESENTATION_STYLE_ASSIGNMENT((#195));
#95=ADVANCED_FACE('',(#196),#197,.T.);
#96=PRESENTATION_STYLE_ASSIGNMENT((#198));
#97=EDGE_CURVE('',#101,#109,#199,.T.);
#98=PRESENTATION_STYLE_ASSIGNMENT((#200));
#99=EDGE_CURVE('',#71,#65,#201,.T.);
#100=PRESENTATION_STYLE_ASSIGNMENT((#202));
#101=VERTEX_POINT('',#203);
#102=PRESENTATION_STYLE_ASSIGNMENT((#204));
#103=VERTEX_POINT('',#205);
#104=PRESENTATION_STYLE_ASSIGNMENT((#206));
#105=EDGE_CURVE('',#119,#103,#207,.T.);
#106=PRESENTATION_STYLE_ASSIGNMENT((#208));
#107=VERTEX_POINT('',#209);
#108=PRESENTATION_STYLE_ASSIGNMENT((#210));
#109=VERTEX_POINT('',#211);
#110=PRESENTATION_STYLE_ASSIGNMENT((#212));
#111=EDGE_CURVE('',#135,#119,#213,.T.);
#112=PRESENTATION_STYLE_ASSIGNMENT((#214));
#113=EDGE_CURVE('',#71,#101,#215,.T.);
#114=PRESENTATION_STYLE_ASSIGNMENT((#216));
#115=EDGE_CURVE('',#93,#73,#217,.T.);
#116=PRESENTATION_STYLE_ASSIGNMENT((#218));
#117=EDGE_CURVE('',#127,#63,#219,.T.);
#118=PRESENTATION_STYLE_ASSIGNMENT((#220));
#119=VERTEX_POINT('',#221);
#120=PRESENTATION_STYLE_ASSIGNMENT((#222));
#121=EDGE_CURVE('',#119,#73,#223,.T.);
#122=PRESENTATION_STYLE_ASSIGNMENT((#224));
#123=EDGE_CURVE('',#101,#135,#225,.T.);
#124=PRESENTATION_STYLE_ASSIGNMENT((#226));
#125=EDGE_CURVE('',#107,#71,#227,.T.);
#126=PRESENTATION_STYLE_ASSIGNMENT((#228));
#127=VERTEX_POINT('',#229);
#128=PRESENTATION_STYLE_ASSIGNMENT((#230));
#129=MANIFOLD_SOLID_BREP('1',#231);
#130=PRESENTATION_STYLE_ASSIGNMENT((#232));
#131=EDGE_CURVE('',#103,#107,#233,.T.);
#132=PRESENTATION_STYLE_ASSIGNMENT((#234));
#133=EDGE_CURVE('',#65,#109,#235,.T.);
#134=PRESENTATION_STYLE_ASSIGNMENT((#236));
#135=VERTEX_POINT('',#237);
#136=PRESENTATION_STYLE_ASSIGNMENT((#238));
#137=EDGE_CURVE('',#63,#65,#239,.T.);
#138=PRESENTATION_STYLE_ASSIGNMENT((#240));
#139=EDGE_CURVE('',#135,#93,#241,.T.);
#140=PRODUCT('1','1','PART-1-DESC',(#242));
#141=PRODUCT_DEFINITION('NONE','NONE',#243,#2);
#142=AXIS2_PLACEMENT_3D('',#244,#245,#246);
#145=LENGTH_MEASURE_WITH_UNIT(LENGTH_MEASURE(1.0),#247);
#148=DIMENSIONAL_EXPONENTS(1.0,0.0,0.0,0.0,0.0,0.0,0.0);
#150=DIMENSIONAL_EXPONENTS(0.0,0.0,0.0,0.0,0.0,0.0,0.0);
#156=POINT_STYLE(' ',#248,POSITIVE_LENGTH_MEASURE(1.0E-006),#249);
#157=CARTESIAN_POINT('',(18.0133283986297,1.19999999995,-6.55));
#158=POINT_STYLE(' ',#250,POSITIVE_LENGTH_MEASURE(1.0E-006),#251);
#159=CARTESIAN_POINT('',(10.0458946838995,15.0,-6.55));
#160=CURVE_STYLE('',#252,POSITIVE_LENGTH_MEASURE(1.0E-006),#253);
#161=LINE('',#254,#255);
#162=SURFACE_STYLE_USAGE(.BOTH.,#256);
#163=FACE_OUTER_BOUND('',#257,.T.);
#164=PLANE('',#258);
#165=POINT_STYLE(' ',#259,POSITIVE_LENGTH_MEASURE(1.0E-006),#260);
#166=CARTESIAN_POINT('',(10.0458946838995,15.0,0.0));
#167=POINT_STYLE(' ',#261,POSITIVE_LENGTH_MEASURE(1.0E-006),#262);
#168=CARTESIAN_POINT('',(1.3856406460551,0.0,-6.55));
#169=SURFACE_STYLE_USAGE(.BOTH.,#263);
#170=FACE_OUTER_BOUND('',#264,.T.);
#171=CYLINDRICAL_SURFACE('',#265,0.800000000000001);
#172=SURFACE_STYLE_USAGE(.BOTH.,#266);
#173=FACE_OUTER_BOUND('',#267,.T.);
#174=PLANE('',#268);
#175=CURVE_STYLE('',#269,POSITIVE_LENGTH_MEASURE(1.0E-006),#270);
#176=LINE('',#271,#272);
#177=SURFACE_STYLE_USAGE(.BOTH.,#273);
#178=FACE_OUTER_BOUND('',#274,.T.);
#179=CYLINDRICAL_SURFACE('',#275,0.800000000000002);
#180=SURFACE_STYLE_USAGE(.BOTH.,#276);
#181=FACE_OUTER_BOUND('',#277,.T.);
#182=PLANE('',#278);
#183=CURVE_STYLE('',#279,POSITIVE_LENGTH_MEASURE(1.0E-006),#280);
#184=LINE('',#281,#282);
#185=CURVE_STYLE('',#283,POSITIVE_LENGTH_MEASURE(1.0E-006),#284);
#186=LINE('',#285,#286);
#187=SURFACE_STYLE_USAGE(.BOTH.,#287);
#188=FACE_OUTER_BOUND('',#288,.T.);
#189=CYLINDRICAL_SURFACE('',#289,0.8);
#190=SURFACE_STYLE_USAGE(.BOTH.,#290);
#191=FACE_OUTER_BOUND('',#291,.T.);
#192=PLANE('',#292);
#193=POINT_STYLE(' ',#293,POSITIVE_LENGTH_MEASURE(1.0E-006),#294);
#194=CARTESIAN_POINT('',(0.692820323027551,1.2,-6.55));
#195=SURFACE_STYLE_USAGE(.BOTH.,#295);
#196=FACE_OUTER_BOUND('',#296,.T.);
#197=PLANE('',#297);
#198=CURVE_STYLE('',#298,POSITIVE_LENGTH_MEASURE(1.0E-006),#299);
#199=LINE('',#300,#301);
#200=CURVE_STYLE('',#302,POSITIVE_LENGTH_MEASURE(1.0E-006),#303);
#201=LINE('',#304,#305);
#202=POINT_STYLE(' ',#306,POSITIVE_LENGTH_MEASURE(1.0E-006),#307);
#203=CARTESIAN_POINT('',(8.66025403793099,14.99999999995,0.0));
#204=POINT_STYLE(' ',#308,POSITIVE_LENGTH_MEASURE(1.0E-006),#309);
#205=CARTESIAN_POINT('',(17.3205080756888,0.0,0.0));
#206=CURVE_STYLE('',#310,POSITIVE_LENGTH_MEASURE(1.0E-006),#311);
#207=LINE('',#312,#313);
#208=POINT_STYLE(' ',#314,POSITIVE_LENGTH_MEASURE(1.0E-006),#315);
#209=CARTESIAN_POINT('',(18.0133283986297,1.19999999995,0.0));
#210=POINT_STYLE(' ',#316,POSITIVE_LENGTH_MEASURE(1.0E-006),#317);
#211=CARTESIAN_POINT('',(8.66025403793099,14.99999999995,-6.55));
#212=CURVE_STYLE('',#318,POSITIVE_LENGTH_MEASURE(1.0E-006),#319);
#213=CIRCLE('',#320,0.8);
#214=CURVE_STYLE('',#321,POSITIVE_LENGTH_MEASURE(1.0E-006),#322);
#215=CIRCLE('',#323,0.800000000000002);
#216=CURVE_STYLE('',#324,POSITIVE_LENGTH_MEASURE(1.0E-006),#325);
#217=CIRCLE('',#326,0.8);
#218=CURVE_STYLE('',#327,POSITIVE_LENGTH_MEASURE(1.0E-006),#328);
#219=CIRCLE('',#329,0.800000000000001);
#220=POINT_STYLE(' ',#330,POSITIVE_LENGTH_MEASURE(1.0E-006),#331);
#221=CARTESIAN_POINT('',(1.3856406460551,0.0,0.0));
#222=CURVE_STYLE('',#332,POSITIVE_LENGTH_MEASURE(1.0E-006),#333);
#223=LINE('',#334,#335);
#224=CURVE_STYLE('',#336,POSITIVE_LENGTH_MEASURE(1.0E-006),#337);
#225=LINE('',#338,#339);
#226=CURVE_STYLE('',#340,POSITIVE_LENGTH_MEASURE(1.0E-006),#341);
#227=LINE('',#342,#343);
#228=POINT_STYLE(' ',#344,POSITIVE_LENGTH_MEASURE(1.0E-006),#345);
#229=CARTESIAN_POINT('',(17.3205080756888,0.0,-6.55));
#230=SURFACE_STYLE_USAGE(.BOTH.,#346);
#231=CLOSED_SHELL('',(#75,#95,#81,#83,#89,#77,#69,#91));
#232=CURVE_STYLE('',#347,POSITIVE_LENGTH_MEASURE(1.0E-006),#348);
#233=CIRCLE('',#349,0.800000000000001);
#234=CURVE_STYLE('',#350,POSITIVE_LENGTH_MEASURE(1.0E-006),#351);
#235=CIRCLE('',#352,0.800000000000002);
#236=POINT_STYLE(' ',#353,POSITIVE_LENGTH_MEASURE(1.0E-006),#354);
#237=CARTESIAN_POINT('',(0.692820323027551,1.2,0.0));
#238=CURVE_STYLE('',#355,POSITIVE_LENGTH_MEASURE(1.0E-006),#356);
#239=LINE('',#357,#358);
#240=CURVE_STYLE('',#359,POSITIVE_LENGTH_MEASURE(1.0E-006),#360);
#241=LINE('',#361,#362);
#242=PRODUCT_CONTEXT('',#49,'mechanical');
#243=PRODUCT_DEFINITION_FORMATION_WITH_SPECIFIED_SOURCE(' ','NONE',#140,.NOT_KNOWN.);
#244=CARTESIAN_POINT('',(0.0,0.0,0.0));
#245=DIRECTION('',(0.0,0.0,1.0));
#246=DIRECTION('',(1.0,0.0,0.0));
#247= (NAMED_UNIT(#148)LENGTH_UNIT()SI_UNIT(.MILLI.,.METRE.));
#248=PRE_DEFINED_MARKER('');
#249=COLOUR_RGB('',0.800000011920929,0.800000011920929,0.800000011920929);
#250=PRE_DEFINED_MARKER('');
#251=COLOUR_RGB('',0.800000011920929,0.800000011920929,0.800000011920929);
#252=DRAUGHTING_PRE_DEFINED_CURVE_FONT('continuous');
#253=COLOUR_RGB('',0.800000011920929,0.800000011920929,0.800000011920929);
#254=CARTESIAN_POINT('',(18.0133283986297,1.19999999995,0.0));
#255=VECTOR('',#364,1.0);
#256=SURFACE_SIDE_STYLE('',(#365));
#257=EDGE_LOOP('',(#366,#367,#368,#369,#370,#371));
#258=AXIS2_PLACEMENT_3D('',#372,#373,#374);
#259=PRE_DEFINED_MARKER('');
#260=COLOUR_RGB('',0.800000011920929,0.800000011920929,0.800000011920929);
#261=PRE_DEFINED_MARKER('');
#262=COLOUR_RGB('',0.800000011920929,0.800000011920929,0.800000011920929);
#263=SURFACE_SIDE_STYLE('',(#375));
#264=EDGE_LOOP('',(#376,#377,#378,#379));
#265=AXIS2_PLACEMENT_3D('',#380,#381,#382);
#266=SURFACE_SIDE_STYLE('',(#383));
#267=EDGE_LOOP('',(#384,#385,#386,#387));
#268=AXIS2_PLACEMENT_3D('',#388,#389,#390);
#269=DRAUGHTING_PRE_DEFINED_CURVE_FONT('continuous');
#270=COLOUR_RGB('',0.800000011920929,0.800000011920929,0.800000011920929);
#271=CARTESIAN_POINT('',(8.66025403784439,15.0,-6.55));
#272=VECTOR('',#391,1.0);
#273=SURFACE_SIDE_STYLE('',(#392));
#274=EDGE_LOOP('',(#393,#394,#395,#396));
#275=AXIS2_PLACEMENT_3D('',#397,#398,#399);
#276=SURFACE_SIDE_STYLE('',(#400));
#277=EDGE_LOOP('',(#401,#402,#403,#404));
#278=AXIS2_PLACEMENT_3D('',#405,#406,#407);
#279=DRAUGHTING_PRE_DEFINED_CURVE_FONT('continuous');
#280=COLOUR_RGB('',0.800000011920929,0.800000011920929,0.800000011920929);
#281=CARTESIAN_POINT('',(17.3205080756888,0.0,0.0));
#282=VECTOR('',#408,1.0);
#283=DRAUGHTING_PRE_DEFINED_CURVE_FONT('continuous');
#284=COLOUR_RGB('',0.800000011920929,0.800000011920929,0.800000011920929);
#285=CARTESIAN_POINT('',(1.3856406460551,0.0,-6.55));
#286=VECTOR('',#409,1.0);
#287=SURFACE_SIDE_STYLE('',(#410));
#288=EDGE_LOOP('',(#411,#412,#413,#414));
#289=AXIS2_PLACEMENT_3D('',#415,#416,#417);
#290=SURFACE_SIDE_STYLE('',(#418));
#291=EDGE_LOOP('',(#419,#420,#421,#422,#423,#424));
#292=AXIS2_PLACEMENT_3D('',#425,#426,#427);
#293=PRE_DEFINED_MARKER('');
#294=COLOUR_RGB('',0.800000011920929,0.800000011920929,0.800000011920929);
#295=SURFACE_SIDE_STYLE('',(#428));
#296=EDGE_LOOP('',(#429,#430,#431,#432));
#297=AXIS2_PLACEMENT_3D('',#433,#434,#435);
#298=DRAUGHTING_PRE_DEFINED_CURVE_FONT('continuous');
#299=COLOUR_RGB('',0.800000011920929,0.800000011920929,0.800000011920929);
#300=CARTESIAN_POINT('',(8.66025403793099,14.99999999995,0.0));
#301=VECTOR('',#436,1.0);
#302=DRAUGHTING_PRE_DEFINED_CURVE_FONT('continuous');
#303=COLOUR_RGB('',0.800000011920929,0.800000011920929,0.800000011920929);
#304=CARTESIAN_POINT('',(10.0458946838995,15.0,0.0));
#305=VECTOR('',#437,1.0);
#306=PRE_DEFINED_MARKER('');
#307=COLOUR_RGB('',0.800000011920929,0.800000011920929,0.800000011920929);
#308=PRE_DEFINED_MARKER('');
#309=COLOUR_RGB('',0.800000011920929,0.800000011920929,0.800000011920929);
#310=DRAUGHTING_PRE_DEFINED_CURVE_FONT('continuous');
#311=COLOUR_RGB('',0.800000011920929,0.800000011920929,0.800000011920929);
#312=CARTESIAN_POINT('',(1.3856406460551,0.0,0.0));
#313=VECTOR('',#438,1.0);
#314=PRE_DEFINED_MARKER('');
#315=COLOUR_RGB('',0.800000011920929,0.800000011920929,0.800000011920929);
#316=PRE_DEFINED_MARKER('');
#317=COLOUR_RGB('',0.800000011920929,0.800000011920929,0.800000011920929);
#318=DRAUGHTING_PRE_DEFINED_CURVE_FONT('continuous');
#319=COLOUR_RGB('',0.800000011920929,0.800000011920929,0.800000011920929);
#320=AXIS2_PLACEMENT_3D('',#439,#440,#441);
#321=DRAUGHTING_PRE_DEFINED_CURVE_FONT('continuous');
#322=COLOUR_RGB('',0.800000011920929,0.800000011920929,0.800000011920929);
#323=AXIS2_PLACEMENT_3D('',#442,#443,#444);
#324=DRAUGHTING_PRE_DEFINED_CURVE_FONT('continuous');
#325=COLOUR_RGB('',0.800000011920929,0.800000011920929,0.800000011920929);
#326=AXIS2_PLACEMENT_3D('',#445,#446,#447);
#327=DRAUGHTING_PRE_DEFINED_CURVE_FONT('continuous');
#328=COLOUR_RGB('',0.800000011920929,0.800000011920929,0.800000011920929);
#329=AXIS2_PLACEMENT_3D('',#448,#449,#450);
#330=PRE_DEFINED_MARKER('');
#331=COLOUR_RGB('',0.800000011920929,0.800000011920929,0.800000011920929);
#332=DRAUGHTING_PRE_DEFINED_CURVE_FONT('continuous');
#333=COLOUR_RGB('',0.800000011920929,0.800000011920929,0.800000011920929);
#334=CARTESIAN_POINT('',(1.3856406460551,0.0,0.0));
#335=VECTOR('',#451,1.0);
#336=DRAUGHTING_PRE_DEFINED_CURVE_FONT('continuous');
#337=COLOUR_RGB('',0.800000011920929,0.800000011920929,0.800000011920929);
#338=CARTESIAN_POINT('',(8.66025403784439,15.0,0.0));
#339=VECTOR('',#452,1.0);
#340=DRAUGHTING_PRE_DEFINED_CURVE_FONT('continuous');
#341=COLOUR_RGB('',0.800000011920929,0.800000011920929,0.800000011920929);
#342=CARTESIAN_POINT('',(18.0133283987163,1.2,0.0));
#343=VECTOR('',#453,1.0);
#344=PRE_DEFINED_MARKER('');
#345=COLOUR_RGB('',0.800000011920929,0.800000011920929,0.800000011920929);
#346=SURFACE_SIDE_STYLE('',(#454));
#347=DRAUGHTING_PRE_DEFINED_CURVE_FONT('continuous');
#348=COLOUR_RGB('',0.800000011920929,0.800000011920929,0.800000011920929);
#349=AXIS2_PLACEMENT_3D('',#455,#456,#457);
#350=DRAUGHTING_PRE_DEFINED_CURVE_FONT('continuous');
#351=COLOUR_RGB('',0.800000011920929,0.800000011920929,0.800000011920929);
#352=AXIS2_PLACEMENT_3D('',#458,#459,#460);
#353=PRE_DEFINED_MARKER('');
#354=COLOUR_RGB('',0.800000011920929,0.800000011920929,0.800000011920929);
#355=DRAUGHTING_PRE_DEFINED_CURVE_FONT('continuous');
#356=COLOUR_RGB('',0.800000011920929,0.800000011920929,0.800000011920929);
#357=CARTESIAN_POINT('',(18.0133283987163,1.2,-6.55));
#358=VECTOR('',#461,1.0);
#359=DRAUGHTING_PRE_DEFINED_CURVE_FONT('continuous');
#360=COLOUR_RGB('',0.800000011920929,0.800000011920929,0.800000011920929);
#361=CARTESIAN_POINT('',(0.692820323027551,1.2,0.0));
#362=VECTOR('',#462,1.0);
#364=DIRECTION('',(0.0,0.0,-1.0));
#365=SURFACE_STYLE_FILL_AREA(#463);
#366=ORIENTED_EDGE('',*,*,#117,.F.);
#367=ORIENTED_EDGE('',*,*,#87,.F.);
#368=ORIENTED_EDGE('',*,*,#115,.F.);
#369=ORIENTED_EDGE('',*,*,#79,.F.);
#370=ORIENTED_EDGE('',*,*,#133,.F.);
#371=ORIENTED_EDGE('',*,*,#137,.F.);
#372=CARTESIAN_POINT('',(9.35307436087194,5.4,-6.55));
#373=DIRECTION('',(0.0,0.0,1.0));
#374=DIRECTION('',(1.0,0.0,0.0));
#375=SURFACE_STYLE_FILL_AREA(#464);
#376=ORIENTED_EDGE('',*,*,#117,.T.);
#377=ORIENTED_EDGE('',*,*,#67,.F.);
#378=ORIENTED_EDGE('',*,*,#131,.F.);
#379=ORIENTED_EDGE('',*,*,#85,.T.);
#380=CARTESIAN_POINT('',(17.3205080755156,0.800000000100001,0.0));
#381=DIRECTION('',(-0.0,-0.0,1.0));
#382=DIRECTION('',(2.16506812478201E-010,-1.0,0.0));
#383=SURFACE_STYLE_FILL_AREA(#465);
#384=ORIENTED_EDGE('',*,*,#87,.T.);
#385=ORIENTED_EDGE('',*,*,#85,.F.);
#386=ORIENTED_EDGE('',*,*,#105,.F.);
#387=ORIENTED_EDGE('',*,*,#121,.T.);
#388=CARTESIAN_POINT('',(1.3856406460551,0.0,0.0));
#389=DIRECTION('',(0.0,-1.0,-0.0));
#390=DIRECTION('',(-1.0,0.0,-0.0));
#391=DIRECTION('',(-0.5,-0.866025403784439,0.0));
#392=SURFACE_STYLE_FILL_AREA(#466);
#393=ORIENTED_EDGE('',*,*,#133,.T.);
#394=ORIENTED_EDGE('',*,*,#97,.F.);
#395=ORIENTED_EDGE('',*,*,#113,.F.);
#396=ORIENTED_EDGE('',*,*,#99,.T.);
#397=CARTESIAN_POINT('',(9.35307436087194,14.5999999998,0.0));
#398=DIRECTION('',(-0.0,-0.0,1.0));
#399=DIRECTION('',(0.866025403676183,0.500000000187505,0.0));
#400=SURFACE_STYLE_FILL_AREA(#467);
#401=ORIENTED_EDGE('',*,*,#79,.T.);
#402=ORIENTED_EDGE('',*,*,#139,.F.);
#403=ORIENTED_EDGE('',*,*,#123,.F.);
#404=ORIENTED_EDGE('',*,*,#97,.T.);
#405=CARTESIAN_POINT('',(8.66025403793099,14.99999999995,0.0));
#406=DIRECTION('',(-0.866025403784439,0.5,0.0));
#407=DIRECTION('',(0.5,0.866025403784439,-0.0));
#408=DIRECTION('',(0.0,0.0,-1.0));
#409=DIRECTION('',(1.0,0.0,0.0));
#410=SURFACE_STYLE_FILL_AREA(#468);
#411=ORIENTED_EDGE('',*,*,#115,.T.);
#412=ORIENTED_EDGE('',*,*,#121,.F.);
#413=ORIENTED_EDGE('',*,*,#111,.F.);
#414=ORIENTED_EDGE('',*,*,#139,.T.);
#415=CARTESIAN_POINT('',(1.38564064622831,0.8000000001,0.0));
#416=DIRECTION('',(-0.0,-0.0,1.0));
#417=DIRECTION('',(-0.866025403892692,0.499999999812499,0.0));
#418=SURFACE_STYLE_FILL_AREA(#469);
#419=ORIENTED_EDGE('',*,*,#105,.T.);
#420=ORIENTED_EDGE('',*,*,#131,.T.);
#421=ORIENTED_EDGE('',*,*,#125,.T.);
#422=ORIENTED_EDGE('',*,*,#113,.T.);
#423=ORIENTED_EDGE('',*,*,#123,.T.);
#424=ORIENTED_EDGE('',*,*,#111,.T.);
#425=CARTESIAN_POINT('',(9.35307436087194,5.4,0.0));
#426=DIRECTION('',(0.0,0.0,1.0));
#427=DIRECTION('',(1.0,0.0,0.0));
#428=SURFACE_STYLE_FILL_AREA(#470);
#429=ORIENTED_EDGE('',*,*,#137,.T.);
#430=ORIENTED_EDGE('',*,*,#99,.F.);
#431=ORIENTED_EDGE('',*,*,#125,.F.);
#432=ORIENTED_EDGE('',*,*,#67,.T.);
#433=CARTESIAN_POINT('',(18.0133283986297,1.19999999995,0.0));
#434=DIRECTION('',(0.866025403784439,0.5,0.0));
#435=DIRECTION('',(0.5,-0.866025403784439,-0.0));
#436=DIRECTION('',(0.0,0.0,-1.0));
#437=DIRECTION('',(0.0,0.0,-1.0));
#438=DIRECTION('',(1.0,0.0,0.0));
#439=CARTESIAN_POINT('',(1.38564064622831,0.8000000001,0.0));
#440=DIRECTION('',(0.0,0.0,1.0));
#441=DIRECTION('',(-0.866025403892692,0.499999999812499,0.0));
#442=CARTESIAN_POINT('',(9.35307436087194,14.5999999998,0.0));
#443=DIRECTION('',(0.0,-0.0,1.0));
#444=DIRECTION('',(0.866025403676183,0.500000000187505,0.0));
#445=CARTESIAN_POINT('',(1.38564064622831,0.8000000001,-6.55));
#446=DIRECTION('',(0.0,0.0,1.0));
#447=DIRECTION('',(-0.866025403892692,0.499999999812499,0.0));
#448=CARTESIAN_POINT('',(17.3205080755156,0.800000000100001,-6.55));
#449=DIRECTION('',(0.0,0.0,1.0));
#450=DIRECTION('',(2.16506812478201E-010,-1.0,0.0));
#451=DIRECTION('',(0.0,0.0,-1.0));
#452=DIRECTION('',(-0.5,-0.866025403784439,0.0));
#453=DIRECTION('',(-0.5,0.866025403784439,0.0));
#454=SURFACE_STYLE_FILL_AREA(#471);
#455=CARTESIAN_POINT('',(17.3205080755156,0.800000000100001,0.0));
#456=DIRECTION('',(0.0,0.0,1.0));
#457=DIRECTION('',(2.16506812478201E-010,-1.0,0.0));
#458=CARTESIAN_POINT('',(9.35307436087194,14.5999999998,-6.55));
#459=DIRECTION('',(0.0,-0.0,1.0));
#460=DIRECTION('',(0.866025403676183,0.500000000187505,0.0));
#461=DIRECTION('',(-0.5,0.866025403784439,0.0));
#462=DIRECTION('',(0.0,0.0,-1.0));
#463=FILL_AREA_STYLE('',(#472));
#464=FILL_AREA_STYLE('',(#473));
#465=FILL_AREA_STYLE('',(#474));
#466=FILL_AREA_STYLE('',(#475));
#467=FILL_AREA_STYLE('',(#476));
#468=FILL_AREA_STYLE('',(#477));
#469=FILL_AREA_STYLE('',(#478));
#470=FILL_AREA_STYLE('',(#479));
#471=FILL_AREA_STYLE('',(#480));
#472=FILL_AREA_STYLE_COLOUR('',#481);
#473=FILL_AREA_STYLE_COLOUR('',#482);
#474=FILL_AREA_STYLE_COLOUR('',#483);
#475=FILL_AREA_STYLE_COLOUR('',#484);
#476=FILL_AREA_STYLE_COLOUR('',#485);
#477=FILL_AREA_STYLE_COLOUR('',#486);
#478=FILL_AREA_STYLE_COLOUR('',#487);
#479=FILL_AREA_STYLE_COLOUR('',#488);
#480=FILL_AREA_STYLE_COLOUR('',#489);
#481=COLOUR_RGB('',0.800000011920929,0.800000011920929,0.800000011920929);
#482=COLOUR_RGB('',0.800000011920929,0.800000011920929,0.800000011920929);
#483=COLOUR_RGB('',0.800000011920929,0.800000011920929,0.800000011920929);
#484=COLOUR_RGB('',0.800000011920929,0.800000011920929,0.800000011920929);
#485=COLOUR_RGB('',0.800000011920929,0.800000011920929,0.800000011920929);
#486=COLOUR_RGB('',0.800000011920929,0.800000011920929,0.800000011920929);
#487=COLOUR_RGB('',0.800000011920929,0.800000011920929,0.800000011920929);
#488=COLOUR_RGB('',0.800000011920929,0.800000011920929,0.800000011920929);
#489=COLOUR_RGB('',0.800000011920929,0.800000011920929,0.800000011920929);
#490=AXIS2_PLACEMENT_3D('PCS',#491,#492,#493);
#491=CARTESIAN_POINT('',(0.0,0.0,0.0));
#492=DIRECTION('',(0.0,0.0,1.0));
#493=DIRECTION('',(1.0,0.0,0.0));
#494=AXIS2_PLACEMENT_3D('MCS',#495,#496,#497);
#495=CARTESIAN_POINT('',(9.35307436,5.4,0.0));
#496=DIRECTION('',(0.0,0.0,1.0));
#497=DIRECTION('',(1.0,0.0,0.0));
#498=CONSTRUCTIVE_GEOMETRY_REPRESENTATION_RELATIONSHIP('coordinate systems',$,#53,#499);
#499=CONSTRUCTIVE_GEOMETRY_REPRESENTATION('coordinate systems',(#490,#494),#6);
ENDSEC;
END-ISO-10303-21;
