ISO-10303-21;
HEADER;
FILE_DESCRIPTION(('no description'),'unknown implementation level');
FILE_NAME('solidULhnqN8_DLIwKv0gk2w2G9S8ZIE_1.STP','  ',('CIMSOURCE GmbH'),('CADClick - KiM GmbH - www.kimweb.de'),'unknown preprocess','ACIS','unknown authorization');
FILE_SCHEMA(('automotive_design'));
ENDSEC;
DATA;
#1=MECHANICAL_DESIGN_GEOMETRIC_PRESENTATION_REPRESENTATION(' ',(#10,#11,#12,#13,#14,#15,#16,#17,#18,#19,#20,#21,#22,#23,#24),#6);
#2=PRODUCT_DEFINITION_CONTEXT('',#25,'design');
#3=APPLICATION_PROTOCOL_DEFINITION('INTERNATIONAL STANDARD','automotive_design',1994,#25);
#4=PRODUCT_CATEGORY_RELATIONSHIP('NONE','NONE',#26,#27);
#5=SHAPE_DEFINITION_REPRESENTATION(#28,#29);
#6= (GEOMETRIC_REPRESENTATION_CONTEXT(3)GLOBAL_UNCERTAINTY_ASSIGNED_CONTEXT((#32))GLOBAL_UNIT_ASSIGNED_CONTEXT((#34,#35,#36))REPRESENTATION_CONTEXT('NONE','WORKSPACE'));
#10=STYLED_ITEM('',(#38),#39);
#11=STYLED_ITEM('',(#40),#41);
#12=STYLED_ITEM('',(#42),#43);
#13=STYLED_ITEM('',(#44),#45);
#14=STYLED_ITEM('',(#46),#47);
#15=STYLED_ITEM('',(#48),#49);
#16=STYLED_ITEM('',(#50),#51);
#17=STYLED_ITEM('',(#52),#53);
#18=STYLED_ITEM('',(#54),#55);
#19=STYLED_ITEM('',(#56),#57);
#20=STYLED_ITEM('',(#58),#59);
#21=STYLED_ITEM('',(#60),#61);
#22=STYLED_ITEM('',(#62),#63);
#23=STYLED_ITEM('',(#64),#65);
#24=STYLED_ITEM('',(#66),#67);
#25=APPLICATION_CONTEXT(' ');
#26=PRODUCT_CATEGORY('part','NONE');
#27=PRODUCT_RELATED_PRODUCT_CATEGORY('detail',' ',(#68));
#28=PRODUCT_DEFINITION_SHAPE('NONE','NONE',#69);
#29=ADVANCED_BREP_SHAPE_REPRESENTATION('1',(#55,#70),#6);
#32=UNCERTAINTY_MEASURE_WITH_UNIT(LENGTH_MEASURE(1.0E-006),#34,'','');
#34= (CONVERSION_BASED_UNIT('MILLIMETRE',#73)LENGTH_UNIT()NAMED_UNIT(#76));
#35= (NAMED_UNIT(#78)PLANE_ANGLE_UNIT()SI_UNIT($,.RADIAN.));
#36= (NAMED_UNIT(#78)SOLID_ANGLE_UNIT()SI_UNIT($,.STERADIAN.));
#38=PRESENTATION_STYLE_ASSIGNMENT((#84));
#39=ADVANCED_FACE('',(#85),#86,.F.);
#40=PRESENTATION_STYLE_ASSIGNMENT((#87));
#41=ADVANCED_FACE('',(#88),#89,.T.);
#42=PRESENTATION_STYLE_ASSIGNMENT((#90));
#43=VERTEX_POINT('',#91);
#44=PRESENTATION_STYLE_ASSIGNMENT((#92));
#45=EDGE_CURVE('',#63,#57,#93,.T.);
#46=PRESENTATION_STYLE_ASSIGNMENT((#94));
#47=EDGE_CURVE('',#53,#63,#95,.T.);
#48=PRESENTATION_STYLE_ASSIGNMENT((#96));
#49=EDGE_CURVE('',#57,#63,#97,.T.);
#50=PRESENTATION_STYLE_ASSIGNMENT((#98));
#51=EDGE_CURVE('',#53,#43,#99,.T.);
#52=PRESENTATION_STYLE_ASSIGNMENT((#100));
#53=VERTEX_POINT('',#101);
#54=PRESENTATION_STYLE_ASSIGNMENT((#102));
#55=MANIFOLD_SOLID_BREP('1',#103);
#56=PRESENTATION_STYLE_ASSIGNMENT((#104));
#57=VERTEX_POINT('',#105);
#58=PRESENTATION_STYLE_ASSIGNMENT((#106));
#59=ADVANCED_FACE('',(#107),#108,.T.);
#60=PRESENTATION_STYLE_ASSIGNMENT((#109));
#61=ADVANCED_FACE('',(#110),#111,.T.);
#62=PRESENTATION_STYLE_ASSIGNMENT((#112));
#63=VERTEX_POINT('',#113);
#64=PRESENTATION_STYLE_ASSIGNMENT((#114));
#65=EDGE_CURVE('',#43,#53,#115,.T.);
#66=PRESENTATION_STYLE_ASSIGNMENT((#116));
#67=EDGE_CURVE('',#57,#43,#117,.T.);
#68=PRODUCT('1','1','PART-1-DESC',(#118));
#69=PRODUCT_DEFINITION('NONE','NONE',#119,#2);
#70=AXIS2_PLACEMENT_3D('',#120,#121,#122);
#73=LENGTH_MEASURE_WITH_UNIT(LENGTH_MEASURE(1.0),#123);
#76=DIMENSIONAL_EXPONENTS(1.0,0.0,0.0,0.0,0.0,0.0,0.0);
#78=DIMENSIONAL_EXPONENTS(0.0,0.0,0.0,0.0,0.0,0.0,0.0);
#84=SURFACE_STYLE_USAGE(.BOTH.,#124);
#85=FACE_OUTER_BOUND('',#125,.T.);
#86=PLANE('',#126);
#87=SURFACE_STYLE_USAGE(.BOTH.,#127);
#88=FACE_OUTER_BOUND('',#128,.T.);
#89=CONICAL_SURFACE('',#129,5.0,0.191986217719376);
#90=POINT_STYLE(' ',#130,POSITIVE_LENGTH_MEASURE(1.0E-006),#131);
#91=CARTESIAN_POINT('',(0.0,5.0,0.0));
#92=CURVE_STYLE('',#132,POSITIVE_LENGTH_MEASURE(1.0E-006),#133);
#93=CIRCLE('',#134,4.22831017272326);
#94=CURVE_STYLE('',#135,POSITIVE_LENGTH_MEASURE(1.0E-006),#136);
#95=LINE('',#137,#138);
#96=CURVE_STYLE('',#139,POSITIVE_LENGTH_MEASURE(1.0E-006),#140);
#97=CIRCLE('',#141,4.22831017272326);
#98=CURVE_STYLE('',#142,POSITIVE_LENGTH_MEASURE(1.0E-006),#143);
#99=CIRCLE('',#144,5.0);
#100=POINT_STYLE(' ',#145,POSITIVE_LENGTH_MEASURE(1.0E-006),#146);
#101=CARTESIAN_POINT('',(10.0,5.0,0.0));
#102=SURFACE_STYLE_USAGE(.BOTH.,#147);
#103=CLOSED_SHELL('',(#41,#59,#39,#61));
#104=POINT_STYLE(' ',#148,POSITIVE_LENGTH_MEASURE(1.0E-006),#149);
#105=CARTESIAN_POINT('',(0.771689827276743,5.0,-3.97));
#106=SURFACE_STYLE_USAGE(.BOTH.,#150);
#107=FACE_OUTER_BOUND('',#151,.T.);
#108=CONICAL_SURFACE('',#152,5.0,0.191986217719376);
#109=SURFACE_STYLE_USAGE(.BOTH.,#153);
#110=FACE_OUTER_BOUND('',#154,.T.);
#111=PLANE('',#155);
#112=POINT_STYLE(' ',#156,POSITIVE_LENGTH_MEASURE(1.0E-006),#157);
#113=CARTESIAN_POINT('',(9.22831017272326,5.0,-3.97));
#114=CURVE_STYLE('',#158,POSITIVE_LENGTH_MEASURE(1.0E-006),#159);
#115=CIRCLE('',#160,5.0);
#116=CURVE_STYLE('',#161,POSITIVE_LENGTH_MEASURE(1.0E-006),#162);
#117=LINE('',#163,#164);
#118=PRODUCT_CONTEXT('',#25,'mechanical');
#119=PRODUCT_DEFINITION_FORMATION_WITH_SPECIFIED_SOURCE(' ','NONE',#68,.NOT_KNOWN.);
#120=CARTESIAN_POINT('',(0.0,0.0,0.0));
#121=DIRECTION('',(0.0,0.0,1.0));
#122=DIRECTION('',(1.0,0.0,0.0));
#123= (NAMED_UNIT(#76)LENGTH_UNIT()SI_UNIT(.MILLI.,.METRE.));
#124=SURFACE_SIDE_STYLE('',(#166));
#125=EDGE_LOOP('',(#167,#168));
#126=AXIS2_PLACEMENT_3D('',#169,#170,#171);
#127=SURFACE_SIDE_STYLE('',(#172));
#128=EDGE_LOOP('',(#173,#174,#175,#176));
#129=AXIS2_PLACEMENT_3D('',#177,#178,#179);
#130=PRE_DEFINED_MARKER('');
#131=COLOUR_RGB('',0.800000011920929,0.800000011920929,0.800000011920929);
#132=DRAUGHTING_PRE_DEFINED_CURVE_FONT('continuous');
#133=COLOUR_RGB('',0.800000011920929,0.800000011920929,0.800000011920929);
#134=AXIS2_PLACEMENT_3D('',#180,#181,#182);
#135=DRAUGHTING_PRE_DEFINED_CURVE_FONT('continuous');
#136=COLOUR_RGB('',0.800000011920929,0.800000011920929,0.800000011920929);
#137=CARTESIAN_POINT('',(10.0,5.0,0.0));
#138=VECTOR('',#183,1.0);
#139=DRAUGHTING_PRE_DEFINED_CURVE_FONT('continuous');
#140=COLOUR_RGB('',0.800000011920929,0.800000011920929,0.800000011920929);
#141=AXIS2_PLACEMENT_3D('',#184,#185,#186);
#142=DRAUGHTING_PRE_DEFINED_CURVE_FONT('continuous');
#143=COLOUR_RGB('',0.800000011920929,0.800000011920929,0.800000011920929);
#144=AXIS2_PLACEMENT_3D('',#187,#188,#189);
#145=PRE_DEFINED_MARKER('');
#146=COLOUR_RGB('',0.800000011920929,0.800000011920929,0.800000011920929);
#147=SURFACE_SIDE_STYLE('',(#190));
#148=PRE_DEFINED_MARKER('');
#149=COLOUR_RGB('',0.800000011920929,0.800000011920929,0.800000011920929);
#150=SURFACE_SIDE_STYLE('',(#191));
#151=EDGE_LOOP('',(#192,#193,#194,#195));
#152=AXIS2_PLACEMENT_3D('',#196,#197,#198);
#153=SURFACE_SIDE_STYLE('',(#199));
#154=EDGE_LOOP('',(#200,#201));
#155=AXIS2_PLACEMENT_3D('',#202,#203,#204);
#156=PRE_DEFINED_MARKER('');
#157=COLOUR_RGB('',0.800000011920929,0.800000011920929,0.800000011920929);
#158=DRAUGHTING_PRE_DEFINED_CURVE_FONT('continuous');
#159=COLOUR_RGB('',0.800000011920929,0.800000011920929,0.800000011920929);
#160=AXIS2_PLACEMENT_3D('',#205,#206,#207);
#161=DRAUGHTING_PRE_DEFINED_CURVE_FONT('continuous');
#162=COLOUR_RGB('',0.800000011920929,0.800000011920929,0.800000011920929);
#163=CARTESIAN_POINT('',(8.88178419700125E-016,5.0,0.0));
#164=VECTOR('',#208,1.0);
#166=SURFACE_STYLE_FILL_AREA(#209);
#167=ORIENTED_EDGE('',*,*,#45,.F.);
#168=ORIENTED_EDGE('',*,*,#49,.F.);
#169=CARTESIAN_POINT('',(5.0,5.0,-3.97));
#170=DIRECTION('',(0.0,0.0,1.0));
#171=DIRECTION('',(1.0,0.0,0.0));
#172=SURFACE_STYLE_FILL_AREA(#210);
#173=ORIENTED_EDGE('',*,*,#47,.F.);
#174=ORIENTED_EDGE('',*,*,#65,.F.);
#175=ORIENTED_EDGE('',*,*,#67,.F.);
#176=ORIENTED_EDGE('',*,*,#49,.T.);
#177=CARTESIAN_POINT('',(5.0,5.0,0.0));
#178=DIRECTION('',(-0.0,-0.0,1.0));
#179=DIRECTION('',(1.0,0.0,0.0));
#180=CARTESIAN_POINT('',(5.0,5.0,-3.97));
#181=DIRECTION('',(0.0,0.0,1.0));
#182=DIRECTION('',(-1.0,5.32907051820075E-016,0.0));
#183=DIRECTION('',(-0.190808995376545,-3.38944863956216E-017,-0.981627183447664));
#184=CARTESIAN_POINT('',(5.0,5.0,-3.97));
#185=DIRECTION('',(0.0,0.0,1.0));
#186=DIRECTION('',(-1.0,5.32907051820075E-016,0.0));
#187=CARTESIAN_POINT('',(5.0,5.0,0.0));
#188=DIRECTION('',(0.0,0.0,1.0));
#189=DIRECTION('',(1.0,0.0,0.0));
#190=SURFACE_STYLE_FILL_AREA(#211);
#191=SURFACE_STYLE_FILL_AREA(#212);
#192=ORIENTED_EDGE('',*,*,#47,.T.);
#193=ORIENTED_EDGE('',*,*,#45,.T.);
#194=ORIENTED_EDGE('',*,*,#67,.T.);
#195=ORIENTED_EDGE('',*,*,#51,.F.);
#196=CARTESIAN_POINT('',(5.0,5.0,0.0));
#197=DIRECTION('',(-0.0,-0.0,1.0));
#198=DIRECTION('',(1.0,0.0,0.0));
#199=SURFACE_STYLE_FILL_AREA(#213);
#200=ORIENTED_EDGE('',*,*,#65,.T.);
#201=ORIENTED_EDGE('',*,*,#51,.T.);
#202=CARTESIAN_POINT('',(5.0,5.0,0.0));
#203=DIRECTION('',(0.0,0.0,1.0));
#204=DIRECTION('',(1.0,0.0,0.0));
#205=CARTESIAN_POINT('',(5.0,5.0,0.0));
#206=DIRECTION('',(0.0,0.0,1.0));
#207=DIRECTION('',(1.0,0.0,0.0));
#208=DIRECTION('',(-0.190808995376545,-3.38944863956216E-017,0.981627183447664));
#209=FILL_AREA_STYLE('',(#214));
#210=FILL_AREA_STYLE('',(#215));
#211=FILL_AREA_STYLE('',(#216));
#212=FILL_AREA_STYLE('',(#217));
#213=FILL_AREA_STYLE('',(#218));
#214=FILL_AREA_STYLE_COLOUR('',#219);
#215=FILL_AREA_STYLE_COLOUR('',#220);
#216=FILL_AREA_STYLE_COLOUR('',#221);
#217=FILL_AREA_STYLE_COLOUR('',#222);
#218=FILL_AREA_STYLE_COLOUR('',#223);
#219=COLOUR_RGB('',0.800000011920929,0.800000011920929,0.800000011920929);
#220=COLOUR_RGB('',0.800000011920929,0.800000011920929,0.800000011920929);
#221=COLOUR_RGB('',0.800000011920929,0.800000011920929,0.800000011920929);
#222=COLOUR_RGB('',0.800000011920929,0.800000011920929,0.800000011920929);
#223=COLOUR_RGB('',0.800000011920929,0.800000011920929,0.800000011920929);
#224=AXIS2_PLACEMENT_3D('PCS',#225,#226,#227);
#225=CARTESIAN_POINT('',(0.0,0.0,0.0));
#226=DIRECTION('',(0.0,0.0,1.0));
#227=DIRECTION('',(1.0,0.0,0.0));
#228=AXIS2_PLACEMENT_3D('MCS',#229,#230,#231);
#229=CARTESIAN_POINT('',(5.0,5.0,0.0));
#230=DIRECTION('',(0.0,0.0,1.0));
#231=DIRECTION('',(1.0,0.0,0.0));
#232=CONSTRUCTIVE_GEOMETRY_REPRESENTATION_RELATIONSHIP('coordinate systems',$,#29,#233);
#233=CONSTRUCTIVE_GEOMETRY_REPRESENTATION('coordinate systems',(#224,#228),#6);
ENDSEC;
END-ISO-10303-21;
