ISO-10303-21;
HEADER;
FILE_DESCRIPTION(('no description'),'unknown implementation level');
FILE_NAME('solidYGTQ7iui9zQBpTixZG75oMDcj0E_1.STP','  ',('CIMSOURCE GmbH'),('CADClick - KiM GmbH - www.kimweb.de'),'unknown preprocess','ACIS','unknown authorization');
FILE_SCHEMA(('automotive_design'));
ENDSEC;
DATA;
#1=MECHANICAL_DESIGN_GEOMETRIC_PRESENTATION_REPRESENTATION(' ',(#10,#11,#12,#13,#14,#15,#16,#17,#18,#19,#20,#21,#22,#23,#24),#6);
#2=PRODUCT_DEFINITION_CONTEXT('',#25,'design');
#3=APPLICATION_PROTOCOL_DEFINITION('INTERNATIONAL STANDARD','automotive_design',1994,#25);
#4=PRODUCT_CATEGORY_RELATIONSHIP('NONE','NONE',#26,#27);
#5=SHAPE_DEFINITION_REPRESENTATION(#28,#29);
#6= (GEOMETRIC_REPRESENTATION_CONTEXT(3)GLOBAL_UNCERTAINTY_ASSIGNED_CONTEXT((#32))GLOBAL_UNIT_ASSIGNED_CONTEXT((#34,#35,#36))REPRESENTATION_CONTEXT('NONE','WORKSPACE'));
#10=STYLED_ITEM('',(#38),#39);
#11=STYLED_ITEM('',(#40),#41);
#12=STYLED_ITEM('',(#42),#43);
#13=STYLED_ITEM('',(#44),#45);
#14=STYLED_ITEM('',(#46),#47);
#15=STYLED_ITEM('',(#48),#49);
#16=STYLED_ITEM('',(#50),#51);
#17=STYLED_ITEM('',(#52),#53);
#18=STYLED_ITEM('',(#54),#55);
#19=STYLED_ITEM('',(#56),#57);
#20=STYLED_ITEM('',(#58),#59);
#21=STYLED_ITEM('',(#60),#61);
#22=STYLED_ITEM('',(#62),#63);
#23=STYLED_ITEM('',(#64),#65);
#24=STYLED_ITEM('',(#66),#67);
#25=APPLICATION_CONTEXT(' ');
#26=PRODUCT_CATEGORY('part','NONE');
#27=PRODUCT_RELATED_PRODUCT_CATEGORY('detail',' ',(#68));
#28=PRODUCT_DEFINITION_SHAPE('NONE','NONE',#69);
#29=ADVANCED_BREP_SHAPE_REPRESENTATION('1',(#47,#70),#6);
#32=UNCERTAINTY_MEASURE_WITH_UNIT(LENGTH_MEASURE(1.0E-006),#34,'','');
#34= (CONVERSION_BASED_UNIT('MILLIMETRE',#73)LENGTH_UNIT()NAMED_UNIT(#76));
#35= (NAMED_UNIT(#78)PLANE_ANGLE_UNIT()SI_UNIT($,.RADIAN.));
#36= (NAMED_UNIT(#78)SOLID_ANGLE_UNIT()SI_UNIT($,.STERADIAN.));
#38=PRESENTATION_STYLE_ASSIGNMENT((#84));
#39=VERTEX_POINT('',#85);
#40=PRESENTATION_STYLE_ASSIGNMENT((#86));
#41=EDGE_CURVE('',#65,#39,#87,.T.);
#42=PRESENTATION_STYLE_ASSIGNMENT((#88));
#43=EDGE_CURVE('',#65,#53,#89,.T.);
#44=PRESENTATION_STYLE_ASSIGNMENT((#90));
#45=EDGE_CURVE('',#67,#39,#91,.T.);
#46=PRESENTATION_STYLE_ASSIGNMENT((#92));
#47=MANIFOLD_SOLID_BREP('1',#93);
#48=PRESENTATION_STYLE_ASSIGNMENT((#94));
#49=ADVANCED_FACE('',(#95),#96,.F.);
#50=PRESENTATION_STYLE_ASSIGNMENT((#97));
#51=ADVANCED_FACE('',(#98),#99,.T.);
#52=PRESENTATION_STYLE_ASSIGNMENT((#100));
#53=VERTEX_POINT('',#101);
#54=PRESENTATION_STYLE_ASSIGNMENT((#102));
#55=EDGE_CURVE('',#67,#53,#103,.T.);
#56=PRESENTATION_STYLE_ASSIGNMENT((#104));
#57=ADVANCED_FACE('',(#105),#106,.T.);
#58=PRESENTATION_STYLE_ASSIGNMENT((#107));
#59=EDGE_CURVE('',#39,#67,#108,.T.);
#60=PRESENTATION_STYLE_ASSIGNMENT((#109));
#61=ADVANCED_FACE('',(#110),#111,.T.);
#62=PRESENTATION_STYLE_ASSIGNMENT((#112));
#63=EDGE_CURVE('',#53,#65,#113,.T.);
#64=PRESENTATION_STYLE_ASSIGNMENT((#114));
#65=VERTEX_POINT('',#115);
#66=PRESENTATION_STYLE_ASSIGNMENT((#116));
#67=VERTEX_POINT('',#117);
#68=PRODUCT('1','1','PART-1-DESC',(#118));
#69=PRODUCT_DEFINITION('NONE','NONE',#119,#2);
#70=AXIS2_PLACEMENT_3D('',#120,#121,#122);
#73=LENGTH_MEASURE_WITH_UNIT(LENGTH_MEASURE(1.0),#123);
#76=DIMENSIONAL_EXPONENTS(1.0,0.0,0.0,0.0,0.0,0.0,0.0);
#78=DIMENSIONAL_EXPONENTS(0.0,0.0,0.0,0.0,0.0,0.0,0.0);
#84=POINT_STYLE(' ',#124,POSITIVE_LENGTH_MEASURE(1.0E-006),#125);
#85=CARTESIAN_POINT('',(11.0747497285045,6.0,-4.76));
#86=CURVE_STYLE('',#126,POSITIVE_LENGTH_MEASURE(1.0E-006),#127);
#87=LINE('',#128,#129);
#88=CURVE_STYLE('',#130,POSITIVE_LENGTH_MEASURE(1.0E-006),#131);
#89=CIRCLE('',#132,6.0);
#90=CURVE_STYLE('',#133,POSITIVE_LENGTH_MEASURE(1.0E-006),#134);
#91=CIRCLE('',#135,5.07474972850446);
#92=SURFACE_STYLE_USAGE(.BOTH.,#136);
#93=CLOSED_SHELL('',(#61,#51,#49,#57));
#94=SURFACE_STYLE_USAGE(.BOTH.,#137);
#95=FACE_OUTER_BOUND('',#138,.T.);
#96=PLANE('',#139);
#97=SURFACE_STYLE_USAGE(.BOTH.,#140);
#98=FACE_OUTER_BOUND('',#141,.T.);
#99=CONICAL_SURFACE('',#142,6.0,0.191986217719376);
#100=POINT_STYLE(' ',#143,POSITIVE_LENGTH_MEASURE(1.0E-006),#144);
#101=CARTESIAN_POINT('',(3.5527136788005E-015,6.00000000000001,0.0));
#102=CURVE_STYLE('',#145,POSITIVE_LENGTH_MEASURE(1.0E-006),#146);
#103=LINE('',#147,#148);
#104=SURFACE_STYLE_USAGE(.BOTH.,#149);
#105=FACE_OUTER_BOUND('',#150,.T.);
#106=PLANE('',#151);
#107=CURVE_STYLE('',#152,POSITIVE_LENGTH_MEASURE(1.0E-006),#153);
#108=CIRCLE('',#154,5.07474972850446);
#109=SURFACE_STYLE_USAGE(.BOTH.,#155);
#110=FACE_OUTER_BOUND('',#156,.T.);
#111=CONICAL_SURFACE('',#157,6.0,0.191986217719376);
#112=CURVE_STYLE('',#158,POSITIVE_LENGTH_MEASURE(1.0E-006),#159);
#113=CIRCLE('',#160,6.0);
#114=POINT_STYLE(' ',#161,POSITIVE_LENGTH_MEASURE(1.0E-006),#162);
#115=CARTESIAN_POINT('',(12.0,6.0,0.0));
#116=POINT_STYLE(' ',#163,POSITIVE_LENGTH_MEASURE(1.0E-006),#164);
#117=CARTESIAN_POINT('',(0.92525027149554,6.0,-4.76));
#118=PRODUCT_CONTEXT('',#25,'mechanical');
#119=PRODUCT_DEFINITION_FORMATION_WITH_SPECIFIED_SOURCE(' ','NONE',#68,.NOT_KNOWN.);
#120=CARTESIAN_POINT('',(0.0,0.0,0.0));
#121=DIRECTION('',(0.0,0.0,1.0));
#122=DIRECTION('',(1.0,0.0,0.0));
#123= (NAMED_UNIT(#76)LENGTH_UNIT()SI_UNIT(.MILLI.,.METRE.));
#124=PRE_DEFINED_MARKER('');
#125=COLOUR_RGB('',0.800000011920929,0.800000011920929,0.800000011920929);
#126=DRAUGHTING_PRE_DEFINED_CURVE_FONT('continuous');
#127=COLOUR_RGB('',0.800000011920929,0.800000011920929,0.800000011920929);
#128=CARTESIAN_POINT('',(12.0,6.0,0.0));
#129=VECTOR('',#166,1.0);
#130=DRAUGHTING_PRE_DEFINED_CURVE_FONT('continuous');
#131=COLOUR_RGB('',0.800000011920929,0.800000011920929,0.800000011920929);
#132=AXIS2_PLACEMENT_3D('',#167,#168,#169);
#133=DRAUGHTING_PRE_DEFINED_CURVE_FONT('continuous');
#134=COLOUR_RGB('',0.800000011920929,0.800000011920929,0.800000011920929);
#135=AXIS2_PLACEMENT_3D('',#170,#171,#172);
#136=SURFACE_SIDE_STYLE('',(#173));
#137=SURFACE_SIDE_STYLE('',(#174));
#138=EDGE_LOOP('',(#175,#176));
#139=AXIS2_PLACEMENT_3D('',#177,#178,#179);
#140=SURFACE_SIDE_STYLE('',(#180));
#141=EDGE_LOOP('',(#181,#182,#183,#184));
#142=AXIS2_PLACEMENT_3D('',#185,#186,#187);
#143=PRE_DEFINED_MARKER('');
#144=COLOUR_RGB('',0.800000011920929,0.800000011920929,0.800000011920929);
#145=DRAUGHTING_PRE_DEFINED_CURVE_FONT('continuous');
#146=COLOUR_RGB('',0.800000011920929,0.800000011920929,0.800000011920929);
#147=CARTESIAN_POINT('',(4.44089209850063E-015,6.0,0.0));
#148=VECTOR('',#188,1.0);
#149=SURFACE_SIDE_STYLE('',(#189));
#150=EDGE_LOOP('',(#190,#191));
#151=AXIS2_PLACEMENT_3D('',#192,#193,#194);
#152=DRAUGHTING_PRE_DEFINED_CURVE_FONT('continuous');
#153=COLOUR_RGB('',0.800000011920929,0.800000011920929,0.800000011920929);
#154=AXIS2_PLACEMENT_3D('',#195,#196,#197);
#155=SURFACE_SIDE_STYLE('',(#198));
#156=EDGE_LOOP('',(#199,#200,#201,#202));
#157=AXIS2_PLACEMENT_3D('',#203,#204,#205);
#158=DRAUGHTING_PRE_DEFINED_CURVE_FONT('continuous');
#159=COLOUR_RGB('',0.800000011920929,0.800000011920929,0.800000011920929);
#160=AXIS2_PLACEMENT_3D('',#206,#207,#208);
#161=PRE_DEFINED_MARKER('');
#162=COLOUR_RGB('',0.800000011920929,0.800000011920929,0.800000011920929);
#163=PRE_DEFINED_MARKER('');
#164=COLOUR_RGB('',0.800000011920929,0.800000011920929,0.800000011920929);
#166=DIRECTION('',(-0.190808995376545,5.64908106593693E-017,-0.981627183447664));
#167=CARTESIAN_POINT('',(6.0,6.0,0.0));
#168=DIRECTION('',(0.0,0.0,1.0));
#169=DIRECTION('',(1.0,-4.44089209850063E-016,0.0));
#170=CARTESIAN_POINT('',(6.0,6.0,-4.76));
#171=DIRECTION('',(0.0,0.0,1.0));
#172=DIRECTION('',(-1.0,1.48029736616688E-016,0.0));
#173=SURFACE_STYLE_FILL_AREA(#209);
#174=SURFACE_STYLE_FILL_AREA(#210);
#175=ORIENTED_EDGE('',*,*,#59,.F.);
#176=ORIENTED_EDGE('',*,*,#45,.F.);
#177=CARTESIAN_POINT('',(6.0,6.0,-4.76));
#178=DIRECTION('',(0.0,0.0,1.0));
#179=DIRECTION('',(1.0,0.0,0.0));
#180=SURFACE_STYLE_FILL_AREA(#211);
#181=ORIENTED_EDGE('',*,*,#41,.T.);
#182=ORIENTED_EDGE('',*,*,#59,.T.);
#183=ORIENTED_EDGE('',*,*,#55,.T.);
#184=ORIENTED_EDGE('',*,*,#43,.F.);
#185=CARTESIAN_POINT('',(6.0,6.0,0.0));
#186=DIRECTION('',(-0.0,-0.0,1.0));
#187=DIRECTION('',(1.0,-4.44089209850063E-016,0.0));
#188=DIRECTION('',(-0.190808995376545,5.64908106593693E-017,0.981627183447664));
#189=SURFACE_STYLE_FILL_AREA(#212);
#190=ORIENTED_EDGE('',*,*,#63,.T.);
#191=ORIENTED_EDGE('',*,*,#43,.T.);
#192=CARTESIAN_POINT('',(6.0,6.0,0.0));
#193=DIRECTION('',(0.0,0.0,1.0));
#194=DIRECTION('',(1.0,0.0,0.0));
#195=CARTESIAN_POINT('',(6.0,6.0,-4.76));
#196=DIRECTION('',(0.0,0.0,1.0));
#197=DIRECTION('',(-1.0,1.48029736616688E-016,0.0));
#198=SURFACE_STYLE_FILL_AREA(#213);
#199=ORIENTED_EDGE('',*,*,#41,.F.);
#200=ORIENTED_EDGE('',*,*,#63,.F.);
#201=ORIENTED_EDGE('',*,*,#55,.F.);
#202=ORIENTED_EDGE('',*,*,#45,.T.);
#203=CARTESIAN_POINT('',(6.0,6.0,0.0));
#204=DIRECTION('',(-0.0,-0.0,1.0));
#205=DIRECTION('',(1.0,-4.44089209850063E-016,0.0));
#206=CARTESIAN_POINT('',(6.0,6.0,0.0));
#207=DIRECTION('',(0.0,0.0,1.0));
#208=DIRECTION('',(1.0,-4.44089209850063E-016,0.0));
#209=FILL_AREA_STYLE('',(#214));
#210=FILL_AREA_STYLE('',(#215));
#211=FILL_AREA_STYLE('',(#216));
#212=FILL_AREA_STYLE('',(#217));
#213=FILL_AREA_STYLE('',(#218));
#214=FILL_AREA_STYLE_COLOUR('',#219);
#215=FILL_AREA_STYLE_COLOUR('',#220);
#216=FILL_AREA_STYLE_COLOUR('',#221);
#217=FILL_AREA_STYLE_COLOUR('',#222);
#218=FILL_AREA_STYLE_COLOUR('',#223);
#219=COLOUR_RGB('',0.800000011920929,0.800000011920929,0.800000011920929);
#220=COLOUR_RGB('',0.800000011920929,0.800000011920929,0.800000011920929);
#221=COLOUR_RGB('',0.800000011920929,0.800000011920929,0.800000011920929);
#222=COLOUR_RGB('',0.800000011920929,0.800000011920929,0.800000011920929);
#223=COLOUR_RGB('',0.800000011920929,0.800000011920929,0.800000011920929);
#224=AXIS2_PLACEMENT_3D('PCS',#225,#226,#227);
#225=CARTESIAN_POINT('',(0.0,0.0,0.0));
#226=DIRECTION('',(0.0,0.0,1.0));
#227=DIRECTION('',(1.0,0.0,0.0));
#228=AXIS2_PLACEMENT_3D('MCS',#229,#230,#231);
#229=CARTESIAN_POINT('',(6.0,6.0,0.0));
#230=DIRECTION('',(0.0,0.0,1.0));
#231=DIRECTION('',(1.0,0.0,0.0));
#232=CONSTRUCTIVE_GEOMETRY_REPRESENTATION_RELATIONSHIP('coordinate systems',$,#29,#233);
#233=CONSTRUCTIVE_GEOMETRY_REPRESENTATION('coordinate systems',(#224,#228),#6);
ENDSEC;
END-ISO-10303-21;
