ISO-10303-21;
HEADER;
FILE_DESCRIPTION(('no description'),'unknown implementation level');
FILE_NAME('solidMB__8kLoWuoodFb_zT2aXSyzQcg_1.STP','  ',('CIMSOURCE GmbH'),('CADClick - KiM GmbH - www.kimweb.de'),'unknown preprocess','ACIS','unknown authorization');
FILE_SCHEMA(('automotive_design'));
ENDSEC;
DATA;
#1=MECHANICAL_DESIGN_GEOMETRIC_PRESENTATION_REPRESENTATION(' ',(#10,#11,#12,#13,#14,#15,#16,#17,#18,#19,#20,#21,#22,#23,#24),#6);
#2=PRODUCT_DEFINITION_CONTEXT('',#25,'design');
#3=APPLICATION_PROTOCOL_DEFINITION('INTERNATIONAL STANDARD','automotive_design',1994,#25);
#4=PRODUCT_CATEGORY_RELATIONSHIP('NONE','NONE',#26,#27);
#5=SHAPE_DEFINITION_REPRESENTATION(#28,#29);
#6= (GEOMETRIC_REPRESENTATION_CONTEXT(3)GLOBAL_UNCERTAINTY_ASSIGNED_CONTEXT((#32))GLOBAL_UNIT_ASSIGNED_CONTEXT((#34,#35,#36))REPRESENTATION_CONTEXT('NONE','WORKSPACE'));
#10=STYLED_ITEM('',(#38),#39);
#11=STYLED_ITEM('',(#40),#41);
#12=STYLED_ITEM('',(#42),#43);
#13=STYLED_ITEM('',(#44),#45);
#14=STYLED_ITEM('',(#46),#47);
#15=STYLED_ITEM('',(#48),#49);
#16=STYLED_ITEM('',(#50),#51);
#17=STYLED_ITEM('',(#52),#53);
#18=STYLED_ITEM('',(#54),#55);
#19=STYLED_ITEM('',(#56),#57);
#20=STYLED_ITEM('',(#58),#59);
#21=STYLED_ITEM('',(#60),#61);
#22=STYLED_ITEM('',(#62),#63);
#23=STYLED_ITEM('',(#64),#65);
#24=STYLED_ITEM('',(#66),#67);
#25=APPLICATION_CONTEXT(' ');
#26=PRODUCT_CATEGORY('part','NONE');
#27=PRODUCT_RELATED_PRODUCT_CATEGORY('detail',' ',(#68));
#28=PRODUCT_DEFINITION_SHAPE('NONE','NONE',#69);
#29=ADVANCED_BREP_SHAPE_REPRESENTATION('1',(#47,#70),#6);
#32=UNCERTAINTY_MEASURE_WITH_UNIT(LENGTH_MEASURE(1.0E-006),#34,'','');
#34= (CONVERSION_BASED_UNIT('MILLIMETRE',#73)LENGTH_UNIT()NAMED_UNIT(#76));
#35= (NAMED_UNIT(#78)PLANE_ANGLE_UNIT()SI_UNIT($,.RADIAN.));
#36= (NAMED_UNIT(#78)SOLID_ANGLE_UNIT()SI_UNIT($,.STERADIAN.));
#38=PRESENTATION_STYLE_ASSIGNMENT((#84));
#39=VERTEX_POINT('',#85);
#40=PRESENTATION_STYLE_ASSIGNMENT((#86));
#41=EDGE_CURVE('',#59,#53,#87,.T.);
#42=PRESENTATION_STYLE_ASSIGNMENT((#88));
#43=EDGE_CURVE('',#67,#39,#89,.T.);
#44=PRESENTATION_STYLE_ASSIGNMENT((#90));
#45=EDGE_CURVE('',#67,#59,#91,.T.);
#46=PRESENTATION_STYLE_ASSIGNMENT((#92));
#47=MANIFOLD_SOLID_BREP('1',#93);
#48=PRESENTATION_STYLE_ASSIGNMENT((#94));
#49=ADVANCED_FACE('',(#95),#96,.F.);
#50=PRESENTATION_STYLE_ASSIGNMENT((#97));
#51=EDGE_CURVE('',#39,#67,#98,.T.);
#52=PRESENTATION_STYLE_ASSIGNMENT((#99));
#53=VERTEX_POINT('',#100);
#54=PRESENTATION_STYLE_ASSIGNMENT((#101));
#55=ADVANCED_FACE('',(#102),#103,.T.);
#56=PRESENTATION_STYLE_ASSIGNMENT((#104));
#57=EDGE_CURVE('',#53,#39,#105,.T.);
#58=PRESENTATION_STYLE_ASSIGNMENT((#106));
#59=VERTEX_POINT('',#107);
#60=PRESENTATION_STYLE_ASSIGNMENT((#108));
#61=EDGE_CURVE('',#53,#59,#109,.T.);
#62=PRESENTATION_STYLE_ASSIGNMENT((#110));
#63=ADVANCED_FACE('',(#111),#112,.T.);
#64=PRESENTATION_STYLE_ASSIGNMENT((#113));
#65=ADVANCED_FACE('',(#114),#115,.T.);
#66=PRESENTATION_STYLE_ASSIGNMENT((#116));
#67=VERTEX_POINT('',#117);
#68=PRODUCT('1','1','PART-1-DESC',(#118));
#69=PRODUCT_DEFINITION('NONE','NONE',#119,#2);
#70=AXIS2_PLACEMENT_3D('',#120,#121,#122);
#73=LENGTH_MEASURE_WITH_UNIT(LENGTH_MEASURE(1.0),#123);
#76=DIMENSIONAL_EXPONENTS(1.0,0.0,0.0,0.0,0.0,0.0,0.0);
#78=DIMENSIONAL_EXPONENTS(0.0,0.0,0.0,0.0,0.0,0.0,0.0);
#84=POINT_STYLE(' ',#124,POSITIVE_LENGTH_MEASURE(1.0E-006),#125);
#85=CARTESIAN_POINT('',(14.9192454811943,8.0,-5.56));
#86=CURVE_STYLE('',#126,POSITIVE_LENGTH_MEASURE(1.0E-006),#127);
#87=CIRCLE('',#128,8.0);
#88=CURVE_STYLE('',#129,POSITIVE_LENGTH_MEASURE(1.0E-006),#130);
#89=CIRCLE('',#131,6.91924548119429);
#90=CURVE_STYLE('',#132,POSITIVE_LENGTH_MEASURE(1.0E-006),#133);
#91=LINE('',#134,#135);
#92=SURFACE_STYLE_USAGE(.BOTH.,#136);
#93=CLOSED_SHELL('',(#63,#55,#49,#65));
#94=SURFACE_STYLE_USAGE(.BOTH.,#137);
#95=FACE_OUTER_BOUND('',#138,.T.);
#96=PLANE('',#139);
#97=CURVE_STYLE('',#140,POSITIVE_LENGTH_MEASURE(1.0E-006),#141);
#98=CIRCLE('',#142,6.91924548119429);
#99=POINT_STYLE(' ',#143,POSITIVE_LENGTH_MEASURE(1.0E-006),#144);
#100=CARTESIAN_POINT('',(16.0,8.0,0.0));
#101=SURFACE_STYLE_USAGE(.BOTH.,#145);
#102=FACE_OUTER_BOUND('',#146,.T.);
#103=CONICAL_SURFACE('',#147,8.0,0.191986217719376);
#104=CURVE_STYLE('',#148,POSITIVE_LENGTH_MEASURE(1.0E-006),#149);
#105=LINE('',#150,#151);
#106=POINT_STYLE(' ',#152,POSITIVE_LENGTH_MEASURE(1.0E-006),#153);
#107=CARTESIAN_POINT('',(2.17533787218538E-031,8.00000000000001,0.0));
#108=CURVE_STYLE('',#154,POSITIVE_LENGTH_MEASURE(1.0E-006),#155);
#109=CIRCLE('',#156,8.0);
#110=SURFACE_STYLE_USAGE(.BOTH.,#157);
#111=FACE_OUTER_BOUND('',#158,.T.);
#112=CONICAL_SURFACE('',#159,8.0,0.191986217719376);
#113=SURFACE_STYLE_USAGE(.BOTH.,#160);
#114=FACE_OUTER_BOUND('',#161,.T.);
#115=PLANE('',#162);
#116=POINT_STYLE(' ',#163,POSITIVE_LENGTH_MEASURE(1.0E-006),#164);
#117=CARTESIAN_POINT('',(1.08075451880571,8.0,-5.56));
#118=PRODUCT_CONTEXT('',#25,'mechanical');
#119=PRODUCT_DEFINITION_FORMATION_WITH_SPECIFIED_SOURCE(' ','NONE',#68,.NOT_KNOWN.);
#120=CARTESIAN_POINT('',(0.0,0.0,0.0));
#121=DIRECTION('',(0.0,0.0,1.0));
#122=DIRECTION('',(1.0,0.0,0.0));
#123= (NAMED_UNIT(#76)LENGTH_UNIT()SI_UNIT(.MILLI.,.METRE.));
#124=PRE_DEFINED_MARKER('');
#125=COLOUR_RGB('',0.800000011920929,0.800000011920929,0.800000011920929);
#126=DRAUGHTING_PRE_DEFINED_CURVE_FONT('continuous');
#127=COLOUR_RGB('',0.800000011920929,0.800000011920929,0.800000011920929);
#128=AXIS2_PLACEMENT_3D('',#166,#167,#168);
#129=DRAUGHTING_PRE_DEFINED_CURVE_FONT('continuous');
#130=COLOUR_RGB('',0.800000011920929,0.800000011920929,0.800000011920929);
#131=AXIS2_PLACEMENT_3D('',#169,#170,#171);
#132=DRAUGHTING_PRE_DEFINED_CURVE_FONT('continuous');
#133=COLOUR_RGB('',0.800000011920929,0.800000011920929,0.800000011920929);
#134=CARTESIAN_POINT('',(0.0,8.0,0.0));
#135=VECTOR('',#172,1.0);
#136=SURFACE_SIDE_STYLE('',(#173));
#137=SURFACE_SIDE_STYLE('',(#174));
#138=EDGE_LOOP('',(#175,#176));
#139=AXIS2_PLACEMENT_3D('',#177,#178,#179);
#140=DRAUGHTING_PRE_DEFINED_CURVE_FONT('continuous');
#141=COLOUR_RGB('',0.800000011920929,0.800000011920929,0.800000011920929);
#142=AXIS2_PLACEMENT_3D('',#180,#181,#182);
#143=PRE_DEFINED_MARKER('');
#144=COLOUR_RGB('',0.800000011920929,0.800000011920929,0.800000011920929);
#145=SURFACE_SIDE_STYLE('',(#183));
#146=EDGE_LOOP('',(#184,#185,#186,#187));
#147=AXIS2_PLACEMENT_3D('',#188,#189,#190);
#148=DRAUGHTING_PRE_DEFINED_CURVE_FONT('continuous');
#149=COLOUR_RGB('',0.800000011920929,0.800000011920929,0.800000011920929);
#150=CARTESIAN_POINT('',(16.0,8.0,0.0));
#151=VECTOR('',#191,1.0);
#152=PRE_DEFINED_MARKER('');
#153=COLOUR_RGB('',0.800000011920929,0.800000011920929,0.800000011920929);
#154=DRAUGHTING_PRE_DEFINED_CURVE_FONT('continuous');
#155=COLOUR_RGB('',0.800000011920929,0.800000011920929,0.800000011920929);
#156=AXIS2_PLACEMENT_3D('',#192,#193,#194);
#157=SURFACE_SIDE_STYLE('',(#195));
#158=EDGE_LOOP('',(#196,#197,#198,#199));
#159=AXIS2_PLACEMENT_3D('',#200,#201,#202);
#160=SURFACE_SIDE_STYLE('',(#203));
#161=EDGE_LOOP('',(#204,#205));
#162=AXIS2_PLACEMENT_3D('',#206,#207,#208);
#163=PRE_DEFINED_MARKER('');
#164=COLOUR_RGB('',0.800000011920929,0.800000011920929,0.800000011920929);
#166=CARTESIAN_POINT('',(8.0,8.0,0.0));
#167=DIRECTION('',(0.0,0.0,1.0));
#168=DIRECTION('',(1.0,-2.22044604925031E-016,0.0));
#169=CARTESIAN_POINT('',(8.0,8.0,-5.56));
#170=DIRECTION('',(0.0,0.0,1.0));
#171=DIRECTION('',(-1.0,3.33066907387547E-016,0.0));
#172=DIRECTION('',(-0.190808995376545,-0.0,0.981627183447664));
#173=SURFACE_STYLE_FILL_AREA(#209);
#174=SURFACE_STYLE_FILL_AREA(#210);
#175=ORIENTED_EDGE('',*,*,#51,.F.);
#176=ORIENTED_EDGE('',*,*,#43,.F.);
#177=CARTESIAN_POINT('',(8.0,8.0,-5.56));
#178=DIRECTION('',(0.0,0.0,1.0));
#179=DIRECTION('',(1.0,0.0,0.0));
#180=CARTESIAN_POINT('',(8.0,8.0,-5.56));
#181=DIRECTION('',(0.0,0.0,1.0));
#182=DIRECTION('',(-1.0,3.33066907387547E-016,0.0));
#183=SURFACE_STYLE_FILL_AREA(#211);
#184=ORIENTED_EDGE('',*,*,#57,.T.);
#185=ORIENTED_EDGE('',*,*,#51,.T.);
#186=ORIENTED_EDGE('',*,*,#45,.T.);
#187=ORIENTED_EDGE('',*,*,#61,.F.);
#188=CARTESIAN_POINT('',(8.0,8.0,0.0));
#189=DIRECTION('',(-0.0,-0.0,1.0));
#190=DIRECTION('',(1.0,-2.22044604925031E-016,0.0));
#191=DIRECTION('',(-0.190808995376545,0.0,-0.981627183447664));
#192=CARTESIAN_POINT('',(8.0,8.0,0.0));
#193=DIRECTION('',(0.0,0.0,1.0));
#194=DIRECTION('',(1.0,-2.22044604925031E-016,0.0));
#195=SURFACE_STYLE_FILL_AREA(#212);
#196=ORIENTED_EDGE('',*,*,#57,.F.);
#197=ORIENTED_EDGE('',*,*,#41,.F.);
#198=ORIENTED_EDGE('',*,*,#45,.F.);
#199=ORIENTED_EDGE('',*,*,#43,.T.);
#200=CARTESIAN_POINT('',(8.0,8.0,0.0));
#201=DIRECTION('',(-0.0,-0.0,1.0));
#202=DIRECTION('',(1.0,-2.22044604925031E-016,0.0));
#203=SURFACE_STYLE_FILL_AREA(#213);
#204=ORIENTED_EDGE('',*,*,#41,.T.);
#205=ORIENTED_EDGE('',*,*,#61,.T.);
#206=CARTESIAN_POINT('',(8.0,8.0,0.0));
#207=DIRECTION('',(0.0,0.0,1.0));
#208=DIRECTION('',(1.0,0.0,0.0));
#209=FILL_AREA_STYLE('',(#214));
#210=FILL_AREA_STYLE('',(#215));
#211=FILL_AREA_STYLE('',(#216));
#212=FILL_AREA_STYLE('',(#217));
#213=FILL_AREA_STYLE('',(#218));
#214=FILL_AREA_STYLE_COLOUR('',#219);
#215=FILL_AREA_STYLE_COLOUR('',#220);
#216=FILL_AREA_STYLE_COLOUR('',#221);
#217=FILL_AREA_STYLE_COLOUR('',#222);
#218=FILL_AREA_STYLE_COLOUR('',#223);
#219=COLOUR_RGB('',0.800000011920929,0.800000011920929,0.800000011920929);
#220=COLOUR_RGB('',0.800000011920929,0.800000011920929,0.800000011920929);
#221=COLOUR_RGB('',0.800000011920929,0.800000011920929,0.800000011920929);
#222=COLOUR_RGB('',0.800000011920929,0.800000011920929,0.800000011920929);
#223=COLOUR_RGB('',0.800000011920929,0.800000011920929,0.800000011920929);
#224=AXIS2_PLACEMENT_3D('PCS',#225,#226,#227);
#225=CARTESIAN_POINT('',(0.0,0.0,0.0));
#226=DIRECTION('',(0.0,0.0,1.0));
#227=DIRECTION('',(1.0,0.0,0.0));
#228=AXIS2_PLACEMENT_3D('MCS',#229,#230,#231);
#229=CARTESIAN_POINT('',(8.0,8.0,0.0));
#230=DIRECTION('',(0.0,0.0,1.0));
#231=DIRECTION('',(1.0,0.0,0.0));
#232=CONSTRUCTIVE_GEOMETRY_REPRESENTATION_RELATIONSHIP('coordinate systems',$,#29,#233);
#233=CONSTRUCTIVE_GEOMETRY_REPRESENTATION('coordinate systems',(#224,#228),#6);
ENDSEC;
END-ISO-10303-21;
