ISO-10303-21;
HEADER;
FILE_DESCRIPTION(('no description'),'unknown implementation level');
FILE_NAME('solidQyzUPJw_rZJFOiMVb8CHQ8PPi1I_1.STP','  ',('CIMSOURCE GmbH'),('CADClick - KiM GmbH - www.kimweb.de'),'unknown preprocess','ACIS','unknown authorization');
FILE_SCHEMA(('automotive_design'));
ENDSEC;
DATA;
#1=MECHANICAL_DESIGN_GEOMETRIC_PRESENTATION_REPRESENTATION(' ',(#10,#11,#12,#13,#14,#15,#16,#17,#18,#19,#20,#21,#22,#23,#24,#25,#26,#27,#28,#29,#30,#31,#32,#33,#34,#35,#36,#37,#38,#39,#40,#41,#42,#43,#44,#45,#46,#47,#48,#49,#50,#51,#52,#53,#54,#55,#56,#57,#58,#59,#60),#6);
#2=PRODUCT_DEFINITION_CONTEXT('',#61,'design');
#3=APPLICATION_PROTOCOL_DEFINITION('INTERNATIONAL STANDARD','automotive_design',1994,#61);
#4=PRODUCT_CATEGORY_RELATIONSHIP('NONE','NONE',#62,#63);
#5=SHAPE_DEFINITION_REPRESENTATION(#64,#65);
#6= (GEOMETRIC_REPRESENTATION_CONTEXT(3)GLOBAL_UNCERTAINTY_ASSIGNED_CONTEXT((#68))GLOBAL_UNIT_ASSIGNED_CONTEXT((#70,#71,#72))REPRESENTATION_CONTEXT('NONE','WORKSPACE'));
#10=STYLED_ITEM('',(#74),#75);
#11=STYLED_ITEM('',(#76),#77);
#12=STYLED_ITEM('',(#78),#79);
#13=STYLED_ITEM('',(#80),#81);
#14=STYLED_ITEM('',(#82),#83);
#15=STYLED_ITEM('',(#84),#85);
#16=STYLED_ITEM('',(#86),#87);
#17=STYLED_ITEM('',(#88),#89);
#18=STYLED_ITEM('',(#90),#91);
#19=STYLED_ITEM('',(#92),#93);
#20=STYLED_ITEM('',(#94),#95);
#21=STYLED_ITEM('',(#96),#97);
#22=STYLED_ITEM('',(#98),#99);
#23=STYLED_ITEM('',(#100),#101);
#24=STYLED_ITEM('',(#102),#103);
#25=STYLED_ITEM('',(#104),#105);
#26=STYLED_ITEM('',(#106),#107);
#27=STYLED_ITEM('',(#108),#109);
#28=STYLED_ITEM('',(#110),#111);
#29=STYLED_ITEM('',(#112),#113);
#30=STYLED_ITEM('',(#114),#115);
#31=STYLED_ITEM('',(#116),#117);
#32=STYLED_ITEM('',(#118),#119);
#33=STYLED_ITEM('',(#120),#121);
#34=STYLED_ITEM('',(#122),#123);
#35=STYLED_ITEM('',(#124),#125);
#36=STYLED_ITEM('',(#126),#127);
#37=STYLED_ITEM('',(#128),#129);
#38=STYLED_ITEM('',(#130),#131);
#39=STYLED_ITEM('',(#132),#133);
#40=STYLED_ITEM('',(#134),#135);
#41=STYLED_ITEM('',(#136),#137);
#42=STYLED_ITEM('',(#138),#139);
#43=STYLED_ITEM('',(#140),#141);
#44=STYLED_ITEM('',(#142),#143);
#45=STYLED_ITEM('',(#144),#145);
#46=STYLED_ITEM('',(#146),#147);
#47=STYLED_ITEM('',(#148),#149);
#48=STYLED_ITEM('',(#150),#151);
#49=STYLED_ITEM('',(#152),#153);
#50=STYLED_ITEM('',(#154),#155);
#51=STYLED_ITEM('',(#156),#157);
#52=STYLED_ITEM('',(#158),#159);
#53=STYLED_ITEM('',(#160),#161);
#54=STYLED_ITEM('',(#162),#163);
#55=STYLED_ITEM('',(#164),#165);
#56=STYLED_ITEM('',(#166),#167);
#57=STYLED_ITEM('',(#168),#169);
#58=STYLED_ITEM('',(#170),#171);
#59=STYLED_ITEM('',(#172),#173);
#60=STYLED_ITEM('',(#174),#175);
#61=APPLICATION_CONTEXT(' ');
#62=PRODUCT_CATEGORY('part','NONE');
#63=PRODUCT_RELATED_PRODUCT_CATEGORY('detail',' ',(#176));
#64=PRODUCT_DEFINITION_SHAPE('NONE','NONE',#177);
#65=ADVANCED_BREP_SHAPE_REPRESENTATION('1',(#175,#178),#6);
#68=UNCERTAINTY_MEASURE_WITH_UNIT(LENGTH_MEASURE(1.0E-006),#70,'','');
#70= (CONVERSION_BASED_UNIT('MILLIMETRE',#181)LENGTH_UNIT()NAMED_UNIT(#184));
#71= (NAMED_UNIT(#186)PLANE_ANGLE_UNIT()SI_UNIT($,.RADIAN.));
#72= (NAMED_UNIT(#186)SOLID_ANGLE_UNIT()SI_UNIT($,.STERADIAN.));
#74=PRESENTATION_STYLE_ASSIGNMENT((#192));
#75=VERTEX_POINT('',#193);
#76=PRESENTATION_STYLE_ASSIGNMENT((#194));
#77=EDGE_CURVE('',#133,#165,#195,.T.);
#78=PRESENTATION_STYLE_ASSIGNMENT((#196));
#79=VERTEX_POINT('',#197);
#80=PRESENTATION_STYLE_ASSIGNMENT((#198));
#81=EDGE_CURVE('',#85,#157,#199,.T.);
#82=PRESENTATION_STYLE_ASSIGNMENT((#200));
#83=EDGE_CURVE('',#165,#75,#201,.T.);
#84=PRESENTATION_STYLE_ASSIGNMENT((#202));
#85=VERTEX_POINT('',#203);
#86=PRESENTATION_STYLE_ASSIGNMENT((#204));
#87=EDGE_CURVE('',#79,#85,#205,.T.);
#88=PRESENTATION_STYLE_ASSIGNMENT((#206));
#89=VERTEX_POINT('',#207);
#90=PRESENTATION_STYLE_ASSIGNMENT((#208));
#91=VERTEX_POINT('',#209);
#92=PRESENTATION_STYLE_ASSIGNMENT((#210));
#93=EDGE_CURVE('',#173,#105,#211,.T.);
#94=PRESENTATION_STYLE_ASSIGNMENT((#212));
#95=EDGE_CURVE('',#173,#91,#213,.T.);
#96=PRESENTATION_STYLE_ASSIGNMENT((#214));
#97=ADVANCED_FACE('',(#215),#216,.T.);
#98=PRESENTATION_STYLE_ASSIGNMENT((#217));
#99=VERTEX_POINT('',#218);
#100=PRESENTATION_STYLE_ASSIGNMENT((#219));
#101=EDGE_CURVE('',#149,#157,#220,.T.);
#102=PRESENTATION_STYLE_ASSIGNMENT((#221));
#103=EDGE_CURVE('',#129,#133,#222,.T.);
#104=PRESENTATION_STYLE_ASSIGNMENT((#223));
#105=VERTEX_POINT('',#224);
#106=PRESENTATION_STYLE_ASSIGNMENT((#225));
#107=EDGE_CURVE('',#85,#137,#226,.T.);
#108=PRESENTATION_STYLE_ASSIGNMENT((#227));
#109=ADVANCED_FACE('',(#228),#229,.T.);
#110=PRESENTATION_STYLE_ASSIGNMENT((#230));
#111=ADVANCED_FACE('',(#231),#232,.T.);
#112=PRESENTATION_STYLE_ASSIGNMENT((#233));
#113=ADVANCED_FACE('',(#234),#235,.T.);
#114=PRESENTATION_STYLE_ASSIGNMENT((#236));
#115=EDGE_CURVE('',#157,#89,#237,.T.);
#116=PRESENTATION_STYLE_ASSIGNMENT((#238));
#117=ADVANCED_FACE('',(#239),#240,.T.);
#118=PRESENTATION_STYLE_ASSIGNMENT((#241));
#119=EDGE_CURVE('',#75,#91,#242,.T.);
#120=PRESENTATION_STYLE_ASSIGNMENT((#243));
#121=EDGE_CURVE('',#89,#133,#244,.T.);
#122=PRESENTATION_STYLE_ASSIGNMENT((#245));
#123=ADVANCED_FACE('',(#246),#247,.T.);
#124=PRESENTATION_STYLE_ASSIGNMENT((#248));
#125=VERTEX_POINT('',#249);
#126=PRESENTATION_STYLE_ASSIGNMENT((#250));
#127=EDGE_CURVE('',#137,#129,#251,.T.);
#128=PRESENTATION_STYLE_ASSIGNMENT((#252));
#129=VERTEX_POINT('',#253);
#130=PRESENTATION_STYLE_ASSIGNMENT((#254));
#131=EDGE_CURVE('',#125,#173,#255,.T.);
#132=PRESENTATION_STYLE_ASSIGNMENT((#256));
#133=VERTEX_POINT('',#257);
#134=PRESENTATION_STYLE_ASSIGNMENT((#258));
#135=EDGE_CURVE('',#167,#125,#259,.T.);
#136=PRESENTATION_STYLE_ASSIGNMENT((#260));
#137=VERTEX_POINT('',#261);
#138=PRESENTATION_STYLE_ASSIGNMENT((#262));
#139=ADVANCED_FACE('',(#263),#264,.T.);
#140=PRESENTATION_STYLE_ASSIGNMENT((#265));
#141=ADVANCED_FACE('',(#266),#267,.F.);
#142=PRESENTATION_STYLE_ASSIGNMENT((#268));
#143=EDGE_CURVE('',#129,#167,#269,.T.);
#144=PRESENTATION_STYLE_ASSIGNMENT((#270));
#145=ADVANCED_FACE('',(#271),#272,.T.);
#146=PRESENTATION_STYLE_ASSIGNMENT((#273));
#147=EDGE_CURVE('',#91,#99,#274,.T.);
#148=PRESENTATION_STYLE_ASSIGNMENT((#275));
#149=VERTEX_POINT('',#276);
#150=PRESENTATION_STYLE_ASSIGNMENT((#277));
#151=EDGE_CURVE('',#137,#89,#278,.T.);
#152=PRESENTATION_STYLE_ASSIGNMENT((#279));
#153=ADVANCED_FACE('',(#280),#281,.T.);
#154=PRESENTATION_STYLE_ASSIGNMENT((#282));
#155=EDGE_CURVE('',#105,#79,#283,.T.);
#156=PRESENTATION_STYLE_ASSIGNMENT((#284));
#157=VERTEX_POINT('',#285);
#158=PRESENTATION_STYLE_ASSIGNMENT((#286));
#159=EDGE_CURVE('',#105,#99,#287,.T.);
#160=PRESENTATION_STYLE_ASSIGNMENT((#288));
#161=EDGE_CURVE('',#125,#75,#289,.T.);
#162=PRESENTATION_STYLE_ASSIGNMENT((#290));
#163=EDGE_CURVE('',#99,#149,#291,.T.);
#164=PRESENTATION_STYLE_ASSIGNMENT((#292));
#165=VERTEX_POINT('',#293);
#166=PRESENTATION_STYLE_ASSIGNMENT((#294));
#167=VERTEX_POINT('',#295);
#168=PRESENTATION_STYLE_ASSIGNMENT((#296));
#169=EDGE_CURVE('',#167,#165,#297,.T.);
#170=PRESENTATION_STYLE_ASSIGNMENT((#298));
#171=EDGE_CURVE('',#79,#149,#299,.T.);
#172=PRESENTATION_STYLE_ASSIGNMENT((#300));
#173=VERTEX_POINT('',#301);
#174=PRESENTATION_STYLE_ASSIGNMENT((#302));
#175=MANIFOLD_SOLID_BREP('1',#303);
#176=PRODUCT('1','1','PART-1-DESC',(#304));
#177=PRODUCT_DEFINITION('NONE','NONE',#305,#2);
#178=AXIS2_PLACEMENT_3D('',#306,#307,#308);
#181=LENGTH_MEASURE_WITH_UNIT(LENGTH_MEASURE(1.0),#309);
#184=DIMENSIONAL_EXPONENTS(1.0,0.0,0.0,0.0,0.0,0.0,0.0);
#186=DIMENSIONAL_EXPONENTS(0.0,0.0,0.0,0.0,0.0,0.0,0.0);
#192=POINT_STYLE(' ',#310,POSITIVE_LENGTH_MEASURE(1.0E-006),#311);
#193=CARTESIAN_POINT('',(11.9460900639552,11.6999999999246,-4.76));
#194=CURVE_STYLE('',#312,POSITIVE_LENGTH_MEASURE(1.0E-006),#313);
#195=CIRCLE('',#314,0.246090064055206);
#196=POINT_STYLE(' ',#315,POSITIVE_LENGTH_MEASURE(1.0E-006),#316);
#197=CARTESIAN_POINT('',(1.00000008274037E-010,11.7,0.0));
#198=CURVE_STYLE('',#317,POSITIVE_LENGTH_MEASURE(1.0E-006),#318);
#199=LINE('',#319,#320);
#200=CURVE_STYLE('',#321,POSITIVE_LENGTH_MEASURE(1.0E-006),#322);
#201=LINE('',#323,#324);
#202=POINT_STYLE(' ',#325,POSITIVE_LENGTH_MEASURE(1.0E-006),#326);
#203=CARTESIAN_POINT('',(0.0,1.0,0.0));
#204=CURVE_STYLE('',#327,POSITIVE_LENGTH_MEASURE(1.0E-006),#328);
#205=LINE('',#329,#330);
#206=POINT_STYLE(' ',#331,POSITIVE_LENGTH_MEASURE(1.0E-006),#332);
#207=CARTESIAN_POINT('',(1.0,0.753909935944794,-4.76));
#208=POINT_STYLE(' ',#333,POSITIVE_LENGTH_MEASURE(1.0E-006),#334);
#209=CARTESIAN_POINT('',(11.7,11.9460900640552,-4.76));
#210=CURVE_STYLE('',#335,POSITIVE_LENGTH_MEASURE(1.0E-006),#336);
#211=LINE('',#337,#338);
#212=CURVE_STYLE('',#339,POSITIVE_LENGTH_MEASURE(1.0E-006),#340);
#213=LINE('',#341,#342);
#214=SURFACE_STYLE_USAGE(.BOTH.,#343);
#215=FACE_OUTER_BOUND('',#344,.T.);
#216=PLANE('',#345);
#217=POINT_STYLE(' ',#346,POSITIVE_LENGTH_MEASURE(1.0E-006),#347);
#218=CARTESIAN_POINT('',(1.00000000007539,11.9460900639552,-4.76));
#219=CURVE_STYLE('',#348,POSITIVE_LENGTH_MEASURE(1.0E-006),#349);
#220=LINE('',#350,#351);
#221=CURVE_STYLE('',#352,POSITIVE_LENGTH_MEASURE(1.0E-006),#353);
#222=LINE('',#354,#355);
#223=POINT_STYLE(' ',#356,POSITIVE_LENGTH_MEASURE(1.0E-006),#357);
#224=CARTESIAN_POINT('',(1.0,12.7,0.0));
#225=CURVE_STYLE('',#358,POSITIVE_LENGTH_MEASURE(1.0E-006),#359);
#226=CIRCLE('',#360,1.0);
#227=SURFACE_STYLE_USAGE(.BOTH.,#361);
#228=FACE_OUTER_BOUND('',#362,.T.);
#229=CONICAL_SURFACE('',#363,1.0,0.15707963267949);
#230=SURFACE_STYLE_USAGE(.BOTH.,#364);
#231=FACE_OUTER_BOUND('',#365,.T.);
#232=CONICAL_SURFACE('',#366,1.0,0.15707963267949);
#233=SURFACE_STYLE_USAGE(.BOTH.,#367);
#234=FACE_OUTER_BOUND('',#368,.T.);
#235=PLANE('',#369);
#236=CURVE_STYLE('',#370,POSITIVE_LENGTH_MEASURE(1.0E-006),#371);
#237=CIRCLE('',#372,0.246090064055207);
#238=SURFACE_STYLE_USAGE(.BOTH.,#373);
#239=FACE_OUTER_BOUND('',#374,.T.);
#240=CONICAL_SURFACE('',#375,0.999999999999998,0.15707963267949);
#241=CURVE_STYLE('',#376,POSITIVE_LENGTH_MEASURE(1.0E-006),#377);
#242=CIRCLE('',#378,0.246090064055204);
#243=CURVE_STYLE('',#379,POSITIVE_LENGTH_MEASURE(1.0E-006),#380);
#244=LINE('',#381,#382);
#245=SURFACE_STYLE_USAGE(.BOTH.,#383);
#246=FACE_OUTER_BOUND('',#384,.T.);
#247=PLANE('',#385);
#248=POINT_STYLE(' ',#386,POSITIVE_LENGTH_MEASURE(1.0E-006),#387);
#249=CARTESIAN_POINT('',(12.7,11.7,0.0));
#250=CURVE_STYLE('',#388,POSITIVE_LENGTH_MEASURE(1.0E-006),#389);
#251=LINE('',#390,#391);
#252=POINT_STYLE(' ',#392,POSITIVE_LENGTH_MEASURE(1.0E-006),#393);
#253=CARTESIAN_POINT('',(11.7,0.0,0.0));
#254=CURVE_STYLE('',#394,POSITIVE_LENGTH_MEASURE(1.0E-006),#395);
#255=CIRCLE('',#396,0.999999999999998);
#256=POINT_STYLE(' ',#397,POSITIVE_LENGTH_MEASURE(1.0E-006),#398);
#257=CARTESIAN_POINT('',(11.6999999999246,0.753909936044794,-4.76));
#258=CURVE_STYLE('',#399,POSITIVE_LENGTH_MEASURE(1.0E-006),#400);
#259=LINE('',#401,#402);
#260=POINT_STYLE(' ',#403,POSITIVE_LENGTH_MEASURE(1.0E-006),#404);
#261=CARTESIAN_POINT('',(1.0,0.0,0.0));
#262=SURFACE_STYLE_USAGE(.BOTH.,#405);
#263=FACE_OUTER_BOUND('',#406,.T.);
#264=PLANE('',#407);
#265=SURFACE_STYLE_USAGE(.BOTH.,#408);
#266=FACE_OUTER_BOUND('',#409,.T.);
#267=PLANE('',#410);
#268=CURVE_STYLE('',#411,POSITIVE_LENGTH_MEASURE(1.0E-006),#412);
#269=CIRCLE('',#413,1.0);
#270=SURFACE_STYLE_USAGE(.BOTH.,#414);
#271=FACE_OUTER_BOUND('',#415,.T.);
#272=CONICAL_SURFACE('',#416,0.999999999999998,0.15707963267949);
#273=CURVE_STYLE('',#417,POSITIVE_LENGTH_MEASURE(1.0E-006),#418);
#274=LINE('',#419,#420);
#275=POINT_STYLE(' ',#421,POSITIVE_LENGTH_MEASURE(1.0E-006),#422);
#276=CARTESIAN_POINT('',(0.753909935944794,11.7,-4.76));
#277=CURVE_STYLE('',#423,POSITIVE_LENGTH_MEASURE(1.0E-006),#424);
#278=LINE('',#425,#426);
#279=SURFACE_STYLE_USAGE(.BOTH.,#427);
#280=FACE_OUTER_BOUND('',#428,.T.);
#281=PLANE('',#429);
#282=CURVE_STYLE('',#430,POSITIVE_LENGTH_MEASURE(1.0E-006),#431);
#283=CIRCLE('',#432,0.999999999999998);
#284=POINT_STYLE(' ',#433,POSITIVE_LENGTH_MEASURE(1.0E-006),#434);
#285=CARTESIAN_POINT('',(0.753909936044794,1.00000000007539,-4.76));
#286=CURVE_STYLE('',#435,POSITIVE_LENGTH_MEASURE(1.0E-006),#436);
#287=LINE('',#437,#438);
#288=CURVE_STYLE('',#439,POSITIVE_LENGTH_MEASURE(1.0E-006),#440);
#289=LINE('',#441,#442);
#290=CURVE_STYLE('',#443,POSITIVE_LENGTH_MEASURE(1.0E-006),#444);
#291=CIRCLE('',#445,0.246090064055204);
#292=POINT_STYLE(' ',#446,POSITIVE_LENGTH_MEASURE(1.0E-006),#447);
#293=CARTESIAN_POINT('',(11.9460900640552,1.0,-4.76));
#294=POINT_STYLE(' ',#448,POSITIVE_LENGTH_MEASURE(1.0E-006),#449);
#295=CARTESIAN_POINT('',(12.6999999999,1.0,0.0));
#296=CURVE_STYLE('',#450,POSITIVE_LENGTH_MEASURE(1.0E-006),#451);
#297=LINE('',#452,#453);
#298=CURVE_STYLE('',#454,POSITIVE_LENGTH_MEASURE(1.0E-006),#455);
#299=LINE('',#456,#457);
#300=POINT_STYLE(' ',#458,POSITIVE_LENGTH_MEASURE(1.0E-006),#459);
#301=CARTESIAN_POINT('',(11.7,12.6999999999,0.0));
#302=SURFACE_STYLE_USAGE(.BOTH.,#460);
#303=CLOSED_SHELL('',(#111,#153,#117,#123,#145,#97,#109,#113,#141,#139));
#304=PRODUCT_CONTEXT('',#61,'mechanical');
#305=PRODUCT_DEFINITION_FORMATION_WITH_SPECIFIED_SOURCE(' ','NONE',#176,.NOT_KNOWN.);
#306=CARTESIAN_POINT('',(0.0,0.0,0.0));
#307=DIRECTION('',(0.0,0.0,1.0));
#308=DIRECTION('',(1.0,0.0,0.0));
#309= (NAMED_UNIT(#184)LENGTH_UNIT()SI_UNIT(.MILLI.,.METRE.));
#310=PRE_DEFINED_MARKER('');
#311=COLOUR_RGB('',0.800000011920929,0.800000011920929,0.800000011920929);
#312=DRAUGHTING_PRE_DEFINED_CURVE_FONT('continuous');
#313=COLOUR_RGB('',0.800000011920929,0.800000011920929,0.800000011920929);
#314=AXIS2_PLACEMENT_3D('',#462,#463,#464);
#315=PRE_DEFINED_MARKER('');
#316=COLOUR_RGB('',0.800000011920929,0.800000011920929,0.800000011920929);
#317=DRAUGHTING_PRE_DEFINED_CURVE_FONT('continuous');
#318=COLOUR_RGB('',0.800000011920929,0.800000011920929,0.800000011920929);
#319=CARTESIAN_POINT('',(0.0,1.0,0.0));
#320=VECTOR('',#465,1.0);
#321=DRAUGHTING_PRE_DEFINED_CURVE_FONT('continuous');
#322=COLOUR_RGB('',0.800000011920929,0.800000011920929,0.800000011920929);
#323=CARTESIAN_POINT('',(11.9460900640552,1.0,-4.76));
#324=VECTOR('',#466,1.0);
#325=PRE_DEFINED_MARKER('');
#326=COLOUR_RGB('',0.800000011920929,0.800000011920929,0.800000011920929);
#327=DRAUGHTING_PRE_DEFINED_CURVE_FONT('continuous');
#328=COLOUR_RGB('',0.800000011920929,0.800000011920929,0.800000011920929);
#329=CARTESIAN_POINT('',(0.0,11.7,0.0));
#330=VECTOR('',#467,1.0);
#331=PRE_DEFINED_MARKER('');
#332=COLOUR_RGB('',0.800000011920929,0.800000011920929,0.800000011920929);
#333=PRE_DEFINED_MARKER('');
#334=COLOUR_RGB('',0.800000011920929,0.800000011920929,0.800000011920929);
#335=DRAUGHTING_PRE_DEFINED_CURVE_FONT('continuous');
#336=COLOUR_RGB('',0.800000011920929,0.800000011920929,0.800000011920929);
#337=CARTESIAN_POINT('',(11.7,12.7,0.0));
#338=VECTOR('',#468,1.0);
#339=DRAUGHTING_PRE_DEFINED_CURVE_FONT('continuous');
#340=COLOUR_RGB('',0.800000011920929,0.800000011920929,0.800000011920929);
#341=CARTESIAN_POINT('',(11.7,12.6999999999,0.0));
#342=VECTOR('',#469,1.0);
#343=SURFACE_SIDE_STYLE('',(#470));
#344=EDGE_LOOP('',(#471,#472,#473,#474));
#345=AXIS2_PLACEMENT_3D('',#475,#476,#477);
#346=PRE_DEFINED_MARKER('');
#347=COLOUR_RGB('',0.800000011920929,0.800000011920929,0.800000011920929);
#348=DRAUGHTING_PRE_DEFINED_CURVE_FONT('continuous');
#349=COLOUR_RGB('',0.800000011920929,0.800000011920929,0.800000011920929);
#350=CARTESIAN_POINT('',(0.753909935944794,11.7,-4.76));
#351=VECTOR('',#478,1.0);
#352=DRAUGHTING_PRE_DEFINED_CURVE_FONT('continuous');
#353=COLOUR_RGB('',0.800000011920929,0.800000011920929,0.800000011920929);
#354=CARTESIAN_POINT('',(11.7,0.0,0.0));
#355=VECTOR('',#479,1.0);
#356=PRE_DEFINED_MARKER('');
#357=COLOUR_RGB('',0.800000011920929,0.800000011920929,0.800000011920929);
#358=DRAUGHTING_PRE_DEFINED_CURVE_FONT('continuous');
#359=COLOUR_RGB('',0.800000011920929,0.800000011920929,0.800000011920929);
#360=AXIS2_PLACEMENT_3D('',#480,#481,#482);
#361=SURFACE_SIDE_STYLE('',(#483));
#362=EDGE_LOOP('',(#484,#485,#486,#487));
#363=AXIS2_PLACEMENT_3D('',#488,#489,#490);
#364=SURFACE_SIDE_STYLE('',(#491));
#365=EDGE_LOOP('',(#492,#493,#494,#495));
#366=AXIS2_PLACEMENT_3D('',#496,#497,#498);
#367=SURFACE_SIDE_STYLE('',(#499));
#368=EDGE_LOOP('',(#500,#501,#502,#503));
#369=AXIS2_PLACEMENT_3D('',#504,#505,#506);
#370=DRAUGHTING_PRE_DEFINED_CURVE_FONT('continuous');
#371=COLOUR_RGB('',0.800000011920929,0.800000011920929,0.800000011920929);
#372=AXIS2_PLACEMENT_3D('',#507,#508,#509);
#373=SURFACE_SIDE_STYLE('',(#510));
#374=EDGE_LOOP('',(#511,#512,#513,#514));
#375=AXIS2_PLACEMENT_3D('',#515,#516,#517);
#376=DRAUGHTING_PRE_DEFINED_CURVE_FONT('continuous');
#377=COLOUR_RGB('',0.800000011920929,0.800000011920929,0.800000011920929);
#378=AXIS2_PLACEMENT_3D('',#518,#519,#520);
#379=DRAUGHTING_PRE_DEFINED_CURVE_FONT('continuous');
#380=COLOUR_RGB('',0.800000011920929,0.800000011920929,0.800000011920929);
#381=CARTESIAN_POINT('',(1.0,0.753909935944794,-4.76));
#382=VECTOR('',#521,1.0);
#383=SURFACE_SIDE_STYLE('',(#522));
#384=EDGE_LOOP('',(#523,#524,#525,#526));
#385=AXIS2_PLACEMENT_3D('',#527,#528,#529);
#386=PRE_DEFINED_MARKER('');
#387=COLOUR_RGB('',0.800000011920929,0.800000011920929,0.800000011920929);
#388=DRAUGHTING_PRE_DEFINED_CURVE_FONT('continuous');
#389=COLOUR_RGB('',0.800000011920929,0.800000011920929,0.800000011920929);
#390=CARTESIAN_POINT('',(1.0,0.0,0.0));
#391=VECTOR('',#530,1.0);
#392=PRE_DEFINED_MARKER('');
#393=COLOUR_RGB('',0.800000011920929,0.800000011920929,0.800000011920929);
#394=DRAUGHTING_PRE_DEFINED_CURVE_FONT('continuous');
#395=COLOUR_RGB('',0.800000011920929,0.800000011920929,0.800000011920929);
#396=AXIS2_PLACEMENT_3D('',#531,#532,#533);
#397=PRE_DEFINED_MARKER('');
#398=COLOUR_RGB('',0.800000011920929,0.800000011920929,0.800000011920929);
#399=DRAUGHTING_PRE_DEFINED_CURVE_FONT('continuous');
#400=COLOUR_RGB('',0.800000011920929,0.800000011920929,0.800000011920929);
#401=CARTESIAN_POINT('',(12.7,1.0,0.0));
#402=VECTOR('',#534,1.0);
#403=PRE_DEFINED_MARKER('');
#404=COLOUR_RGB('',0.800000011920929,0.800000011920929,0.800000011920929);
#405=SURFACE_SIDE_STYLE('',(#535));
#406=EDGE_LOOP('',(#536,#537,#538,#539,#540,#541,#542,#543));
#407=AXIS2_PLACEMENT_3D('',#544,#545,#546);
#408=SURFACE_SIDE_STYLE('',(#547));
#409=EDGE_LOOP('',(#548,#549,#550,#551,#552,#553,#554,#555));
#410=AXIS2_PLACEMENT_3D('',#556,#557,#558);
#411=DRAUGHTING_PRE_DEFINED_CURVE_FONT('continuous');
#412=COLOUR_RGB('',0.800000011920929,0.800000011920929,0.800000011920929);
#413=AXIS2_PLACEMENT_3D('',#559,#560,#561);
#414=SURFACE_SIDE_STYLE('',(#562));
#415=EDGE_LOOP('',(#563,#564,#565,#566));
#416=AXIS2_PLACEMENT_3D('',#567,#568,#569);
#417=DRAUGHTING_PRE_DEFINED_CURVE_FONT('continuous');
#418=COLOUR_RGB('',0.800000011920929,0.800000011920929,0.800000011920929);
#419=CARTESIAN_POINT('',(11.7,11.9460900640552,-4.76));
#420=VECTOR('',#570,1.0);
#421=PRE_DEFINED_MARKER('');
#422=COLOUR_RGB('',0.800000011920929,0.800000011920929,0.800000011920929);
#423=DRAUGHTING_PRE_DEFINED_CURVE_FONT('continuous');
#424=COLOUR_RGB('',0.800000011920929,0.800000011920929,0.800000011920929);
#425=CARTESIAN_POINT('',(1.0,0.0,0.0));
#426=VECTOR('',#571,1.0);
#427=SURFACE_SIDE_STYLE('',(#572));
#428=EDGE_LOOP('',(#573,#574,#575,#576));
#429=AXIS2_PLACEMENT_3D('',#577,#578,#579);
#430=DRAUGHTING_PRE_DEFINED_CURVE_FONT('continuous');
#431=COLOUR_RGB('',0.800000011920929,0.800000011920929,0.800000011920929);
#432=AXIS2_PLACEMENT_3D('',#580,#581,#582);
#433=PRE_DEFINED_MARKER('');
#434=COLOUR_RGB('',0.800000011920929,0.800000011920929,0.800000011920929);
#435=DRAUGHTING_PRE_DEFINED_CURVE_FONT('continuous');
#436=COLOUR_RGB('',0.800000011920929,0.800000011920929,0.800000011920929);
#437=CARTESIAN_POINT('',(1.0,12.7,0.0));
#438=VECTOR('',#583,1.0);
#439=DRAUGHTING_PRE_DEFINED_CURVE_FONT('continuous');
#440=COLOUR_RGB('',0.800000011920929,0.800000011920929,0.800000011920929);
#441=CARTESIAN_POINT('',(12.7,11.7,0.0));
#442=VECTOR('',#584,1.0);
#443=DRAUGHTING_PRE_DEFINED_CURVE_FONT('continuous');
#444=COLOUR_RGB('',0.800000011920929,0.800000011920929,0.800000011920929);
#445=AXIS2_PLACEMENT_3D('',#585,#586,#587);
#446=PRE_DEFINED_MARKER('');
#447=COLOUR_RGB('',0.800000011920929,0.800000011920929,0.800000011920929);
#448=PRE_DEFINED_MARKER('');
#449=COLOUR_RGB('',0.800000011920929,0.800000011920929,0.800000011920929);
#450=DRAUGHTING_PRE_DEFINED_CURVE_FONT('continuous');
#451=COLOUR_RGB('',0.800000011920929,0.800000011920929,0.800000011920929);
#452=CARTESIAN_POINT('',(12.6999999999,1.0,0.0));
#453=VECTOR('',#588,1.0);
#454=DRAUGHTING_PRE_DEFINED_CURVE_FONT('continuous');
#455=COLOUR_RGB('',0.800000011920929,0.800000011920929,0.800000011920929);
#456=CARTESIAN_POINT('',(1.00000008274037E-010,11.7,0.0));
#457=VECTOR('',#589,1.0);
#458=PRE_DEFINED_MARKER('');
#459=COLOUR_RGB('',0.800000011920929,0.800000011920929,0.800000011920929);
#460=SURFACE_SIDE_STYLE('',(#590));
#462=CARTESIAN_POINT('',(11.6999999999,1.0000000001,-4.76));
#463=DIRECTION('',(0.0,0.0,1.0));
#464=DIRECTION('',(1.00000008274037E-010,-1.0,0.0));
#465=DIRECTION('',(0.156434465060473,1.56434994583694E-011,-0.987688340591932));
#466=DIRECTION('',(0.0,1.0,0.0));
#467=DIRECTION('',(0.0,-1.0,0.0));
#468=DIRECTION('',(-1.0,0.0,0.0));
#469=DIRECTION('',(0.0,-0.156434465019989,-0.987688340598344));
#470=SURFACE_STYLE_FILL_AREA(#591);
#471=ORIENTED_EDGE('',*,*,#101,.T.);
#472=ORIENTED_EDGE('',*,*,#81,.F.);
#473=ORIENTED_EDGE('',*,*,#87,.F.);
#474=ORIENTED_EDGE('',*,*,#171,.T.);
#475=CARTESIAN_POINT('',(1.00000008274037E-010,11.7,0.0));
#476=DIRECTION('',(-0.987688340598344,0.0,-0.156434465019989));
#477=DIRECTION('',(0.0,1.0,0.0));
#478=DIRECTION('',(0.0,-1.0,0.0));
#479=DIRECTION('',(-1.56433151635229E-011,0.156434465060473,-0.987688340591932));
#480=CARTESIAN_POINT('',(1.0000000001,1.0000000001,0.0));
#481=DIRECTION('',(0.0,0.0,1.0));
#482=DIRECTION('',(-1.0,-9.99991200956174E-011,0.0));
#483=SURFACE_STYLE_FILL_AREA(#592);
#484=ORIENTED_EDGE('',*,*,#115,.T.);
#485=ORIENTED_EDGE('',*,*,#151,.F.);
#486=ORIENTED_EDGE('',*,*,#107,.F.);
#487=ORIENTED_EDGE('',*,*,#81,.T.);
#488=CARTESIAN_POINT('',(1.0000000001,1.0000000001,0.0));
#489=DIRECTION('',(0.0,-0.0,1.0));
#490=DIRECTION('',(-1.0,-9.99991200956174E-011,0.0));
#491=SURFACE_STYLE_FILL_AREA(#593);
#492=ORIENTED_EDGE('',*,*,#77,.T.);
#493=ORIENTED_EDGE('',*,*,#169,.F.);
#494=ORIENTED_EDGE('',*,*,#143,.F.);
#495=ORIENTED_EDGE('',*,*,#103,.T.);
#496=CARTESIAN_POINT('',(11.6999999999,1.0000000001,0.0));
#497=DIRECTION('',(-0.0,-0.0,1.0));
#498=DIRECTION('',(1.00000008274037E-010,-1.0,0.0));
#499=SURFACE_STYLE_FILL_AREA(#594);
#500=ORIENTED_EDGE('',*,*,#121,.T.);
#501=ORIENTED_EDGE('',*,*,#103,.F.);
#502=ORIENTED_EDGE('',*,*,#127,.F.);
#503=ORIENTED_EDGE('',*,*,#151,.T.);
#504=CARTESIAN_POINT('',(1.0,0.0,0.0));
#505=DIRECTION('',(-0.0,-0.987688340595138,-0.156434465040231));
#506=DIRECTION('',(-1.0,0.0,0.0));
#507=CARTESIAN_POINT('',(1.0000000001,1.0000000001,-4.76));
#508=DIRECTION('',(0.0,0.0,1.0));
#509=DIRECTION('',(-1.0,-9.99991200956174E-011,0.0));
#510=SURFACE_STYLE_FILL_AREA(#595);
#511=ORIENTED_EDGE('',*,*,#119,.T.);
#512=ORIENTED_EDGE('',*,*,#95,.F.);
#513=ORIENTED_EDGE('',*,*,#131,.F.);
#514=ORIENTED_EDGE('',*,*,#161,.T.);
#515=CARTESIAN_POINT('',(11.6999999999,11.6999999999,0.0));
#516=DIRECTION('',(-0.0,-0.0,1.0));
#517=DIRECTION('',(1.0,9.99982319171979E-011,0.0));
#518=CARTESIAN_POINT('',(11.6999999999,11.6999999999,-4.76));
#519=DIRECTION('',(0.0,-0.0,1.0));
#520=DIRECTION('',(1.0,9.99982319171979E-011,0.0));
#521=DIRECTION('',(1.0,0.0,0.0));
#522=SURFACE_STYLE_FILL_AREA(#596);
#523=ORIENTED_EDGE('',*,*,#147,.T.);
#524=ORIENTED_EDGE('',*,*,#159,.F.);
#525=ORIENTED_EDGE('',*,*,#93,.F.);
#526=ORIENTED_EDGE('',*,*,#95,.T.);
#527=CARTESIAN_POINT('',(11.7,12.6999999999,0.0));
#528=DIRECTION('',(0.0,0.987688340598344,-0.156434465019989));
#529=DIRECTION('',(1.0,-0.0,0.0));
#530=DIRECTION('',(1.0,0.0,0.0));
#531=CARTESIAN_POINT('',(11.6999999999,11.6999999999,0.0));
#532=DIRECTION('',(0.0,-0.0,1.0));
#533=DIRECTION('',(1.0,9.99982319171979E-011,0.0));
#534=DIRECTION('',(0.0,1.0,0.0));
#535=SURFACE_STYLE_FILL_AREA(#597);
#536=ORIENTED_EDGE('',*,*,#127,.T.);
#537=ORIENTED_EDGE('',*,*,#143,.T.);
#538=ORIENTED_EDGE('',*,*,#135,.T.);
#539=ORIENTED_EDGE('',*,*,#131,.T.);
#540=ORIENTED_EDGE('',*,*,#93,.T.);
#541=ORIENTED_EDGE('',*,*,#155,.T.);
#542=ORIENTED_EDGE('',*,*,#87,.T.);
#543=ORIENTED_EDGE('',*,*,#107,.T.);
#544=CARTESIAN_POINT('',(6.35,6.35,0.0));
#545=DIRECTION('',(0.0,0.0,1.0));
#546=DIRECTION('',(1.0,0.0,0.0));
#547=SURFACE_STYLE_FILL_AREA(#598);
#548=ORIENTED_EDGE('',*,*,#77,.F.);
#549=ORIENTED_EDGE('',*,*,#121,.F.);
#550=ORIENTED_EDGE('',*,*,#115,.F.);
#551=ORIENTED_EDGE('',*,*,#101,.F.);
#552=ORIENTED_EDGE('',*,*,#163,.F.);
#553=ORIENTED_EDGE('',*,*,#147,.F.);
#554=ORIENTED_EDGE('',*,*,#119,.F.);
#555=ORIENTED_EDGE('',*,*,#83,.F.);
#556=CARTESIAN_POINT('',(6.35,6.35,-4.76));
#557=DIRECTION('',(0.0,0.0,1.0));
#558=DIRECTION('',(1.0,0.0,0.0));
#559=CARTESIAN_POINT('',(11.6999999999,1.0000000001,0.0));
#560=DIRECTION('',(0.0,0.0,1.0));
#561=DIRECTION('',(1.00000008274037E-010,-1.0,0.0));
#562=SURFACE_STYLE_FILL_AREA(#599);
#563=ORIENTED_EDGE('',*,*,#163,.T.);
#564=ORIENTED_EDGE('',*,*,#171,.F.);
#565=ORIENTED_EDGE('',*,*,#155,.F.);
#566=ORIENTED_EDGE('',*,*,#159,.T.);
#567=CARTESIAN_POINT('',(1.0000000001,11.6999999999,0.0));
#568=DIRECTION('',(-0.0,-0.0,1.0));
#569=DIRECTION('',(-9.99983429395003E-011,1.0,0.0));
#570=DIRECTION('',(-1.0,0.0,0.0));
#571=DIRECTION('',(0.0,0.156434465040231,-0.987688340595138));
#572=SURFACE_STYLE_FILL_AREA(#600);
#573=ORIENTED_EDGE('',*,*,#83,.T.);
#574=ORIENTED_EDGE('',*,*,#161,.F.);
#575=ORIENTED_EDGE('',*,*,#135,.F.);
#576=ORIENTED_EDGE('',*,*,#169,.T.);
#577=CARTESIAN_POINT('',(12.6999999999,1.0,0.0));
#578=DIRECTION('',(0.987688340598344,-0.0,-0.156434465019989));
#579=DIRECTION('',(-0.0,-1.0,0.0));
#580=CARTESIAN_POINT('',(1.0000000001,11.6999999999,0.0));
#581=DIRECTION('',(0.0,0.0,1.0));
#582=DIRECTION('',(-9.99983429395003E-011,1.0,0.0));
#583=DIRECTION('',(1.5643176942388E-011,-0.156434465060473,-0.987688340591932));
#584=DIRECTION('',(-0.156434465060473,-1.56433151635229E-011,-0.987688340591932));
#585=CARTESIAN_POINT('',(1.0000000001,11.6999999999,-4.76));
#586=DIRECTION('',(0.0,0.0,1.0));
#587=DIRECTION('',(-9.99983429395003E-011,1.0,0.0));
#588=DIRECTION('',(-0.156434465019989,0.0,-0.987688340598344));
#589=DIRECTION('',(0.156434465019989,0.0,-0.987688340598344));
#590=SURFACE_STYLE_FILL_AREA(#601);
#591=FILL_AREA_STYLE('',(#602));
#592=FILL_AREA_STYLE('',(#603));
#593=FILL_AREA_STYLE('',(#604));
#594=FILL_AREA_STYLE('',(#605));
#595=FILL_AREA_STYLE('',(#606));
#596=FILL_AREA_STYLE('',(#607));
#597=FILL_AREA_STYLE('',(#608));
#598=FILL_AREA_STYLE('',(#609));
#599=FILL_AREA_STYLE('',(#610));
#600=FILL_AREA_STYLE('',(#611));
#601=FILL_AREA_STYLE('',(#612));
#602=FILL_AREA_STYLE_COLOUR('',#613);
#603=FILL_AREA_STYLE_COLOUR('',#614);
#604=FILL_AREA_STYLE_COLOUR('',#615);
#605=FILL_AREA_STYLE_COLOUR('',#616);
#606=FILL_AREA_STYLE_COLOUR('',#617);
#607=FILL_AREA_STYLE_COLOUR('',#618);
#608=FILL_AREA_STYLE_COLOUR('',#619);
#609=FILL_AREA_STYLE_COLOUR('',#620);
#610=FILL_AREA_STYLE_COLOUR('',#621);
#611=FILL_AREA_STYLE_COLOUR('',#622);
#612=FILL_AREA_STYLE_COLOUR('',#623);
#613=COLOUR_RGB('',0.800000011920929,0.800000011920929,0.800000011920929);
#614=COLOUR_RGB('',0.800000011920929,0.800000011920929,0.800000011920929);
#615=COLOUR_RGB('',0.800000011920929,0.800000011920929,0.800000011920929);
#616=COLOUR_RGB('',0.800000011920929,0.800000011920929,0.800000011920929);
#617=COLOUR_RGB('',0.800000011920929,0.800000011920929,0.800000011920929);
#618=COLOUR_RGB('',0.800000011920929,0.800000011920929,0.800000011920929);
#619=COLOUR_RGB('',0.800000011920929,0.800000011920929,0.800000011920929);
#620=COLOUR_RGB('',0.800000011920929,0.800000011920929,0.800000011920929);
#621=COLOUR_RGB('',0.800000011920929,0.800000011920929,0.800000011920929);
#622=COLOUR_RGB('',0.800000011920929,0.800000011920929,0.800000011920929);
#623=COLOUR_RGB('',0.800000011920929,0.800000011920929,0.800000011920929);
#624=AXIS2_PLACEMENT_3D('PCS',#625,#626,#627);
#625=CARTESIAN_POINT('',(0.0,0.0,0.0));
#626=DIRECTION('',(0.0,0.0,1.0));
#627=DIRECTION('',(1.0,0.0,0.0));
#628=AXIS2_PLACEMENT_3D('MCS',#629,#630,#631);
#629=CARTESIAN_POINT('',(6.35,6.35,0.0));
#630=DIRECTION('',(0.0,0.0,1.0));
#631=DIRECTION('',(1.0,0.0,0.0));
#632=CONSTRUCTIVE_GEOMETRY_REPRESENTATION_RELATIONSHIP('coordinate systems',$,#65,#633);
#633=CONSTRUCTIVE_GEOMETRY_REPRESENTATION('coordinate systems',(#624,#628),#6);
ENDSEC;
END-ISO-10303-21;
