ISO-10303-21;
HEADER;
FILE_DESCRIPTION(('no description'),'unknown implementation level');
FILE_NAME('solidvF4F2NM_HzdppxIb_KzJkmK595U_1.STP','  ',('CIMSOURCE GmbH'),('CADClick - KiM GmbH - www.kimweb.de'),'unknown preprocess','ACIS','unknown authorization');
FILE_SCHEMA(('automotive_design'));
ENDSEC;
DATA;
#1=MECHANICAL_DESIGN_GEOMETRIC_PRESENTATION_REPRESENTATION(' ',(#10,#11,#12,#13,#14,#15,#16,#17,#18,#19,#20,#21,#22,#23,#24,#25,#26,#27,#28,#29,#30,#31,#32,#33,#34,#35,#36,#37,#38,#39,#40,#41,#42,#43,#44,#45,#46,#47,#48,#49,#50,#51,#52,#53,#54,#55,#56,#57,#58,#59,#60),#6);
#2=PRODUCT_DEFINITION_CONTEXT('',#61,'design');
#3=APPLICATION_PROTOCOL_DEFINITION('INTERNATIONAL STANDARD','automotive_design',1994,#61);
#4=PRODUCT_CATEGORY_RELATIONSHIP('NONE','NONE',#62,#63);
#5=SHAPE_DEFINITION_REPRESENTATION(#64,#65);
#6= (GEOMETRIC_REPRESENTATION_CONTEXT(3)GLOBAL_UNCERTAINTY_ASSIGNED_CONTEXT((#68))GLOBAL_UNIT_ASSIGNED_CONTEXT((#70,#71,#72))REPRESENTATION_CONTEXT('NONE','WORKSPACE'));
#10=STYLED_ITEM('',(#74),#75);
#11=STYLED_ITEM('',(#76),#77);
#12=STYLED_ITEM('',(#78),#79);
#13=STYLED_ITEM('',(#80),#81);
#14=STYLED_ITEM('',(#82),#83);
#15=STYLED_ITEM('',(#84),#85);
#16=STYLED_ITEM('',(#86),#87);
#17=STYLED_ITEM('',(#88),#89);
#18=STYLED_ITEM('',(#90),#91);
#19=STYLED_ITEM('',(#92),#93);
#20=STYLED_ITEM('',(#94),#95);
#21=STYLED_ITEM('',(#96),#97);
#22=STYLED_ITEM('',(#98),#99);
#23=STYLED_ITEM('',(#100),#101);
#24=STYLED_ITEM('',(#102),#103);
#25=STYLED_ITEM('',(#104),#105);
#26=STYLED_ITEM('',(#106),#107);
#27=STYLED_ITEM('',(#108),#109);
#28=STYLED_ITEM('',(#110),#111);
#29=STYLED_ITEM('',(#112),#113);
#30=STYLED_ITEM('',(#114),#115);
#31=STYLED_ITEM('',(#116),#117);
#32=STYLED_ITEM('',(#118),#119);
#33=STYLED_ITEM('',(#120),#121);
#34=STYLED_ITEM('',(#122),#123);
#35=STYLED_ITEM('',(#124),#125);
#36=STYLED_ITEM('',(#126),#127);
#37=STYLED_ITEM('',(#128),#129);
#38=STYLED_ITEM('',(#130),#131);
#39=STYLED_ITEM('',(#132),#133);
#40=STYLED_ITEM('',(#134),#135);
#41=STYLED_ITEM('',(#136),#137);
#42=STYLED_ITEM('',(#138),#139);
#43=STYLED_ITEM('',(#140),#141);
#44=STYLED_ITEM('',(#142),#143);
#45=STYLED_ITEM('',(#144),#145);
#46=STYLED_ITEM('',(#146),#147);
#47=STYLED_ITEM('',(#148),#149);
#48=STYLED_ITEM('',(#150),#151);
#49=STYLED_ITEM('',(#152),#153);
#50=STYLED_ITEM('',(#154),#155);
#51=STYLED_ITEM('',(#156),#157);
#52=STYLED_ITEM('',(#158),#159);
#53=STYLED_ITEM('',(#160),#161);
#54=STYLED_ITEM('',(#162),#163);
#55=STYLED_ITEM('',(#164),#165);
#56=STYLED_ITEM('',(#166),#167);
#57=STYLED_ITEM('',(#168),#169);
#58=STYLED_ITEM('',(#170),#171);
#59=STYLED_ITEM('',(#172),#173);
#60=STYLED_ITEM('',(#174),#175);
#61=APPLICATION_CONTEXT(' ');
#62=PRODUCT_CATEGORY('part','NONE');
#63=PRODUCT_RELATED_PRODUCT_CATEGORY('detail',' ',(#176));
#64=PRODUCT_DEFINITION_SHAPE('NONE','NONE',#177);
#65=ADVANCED_BREP_SHAPE_REPRESENTATION('1',(#143,#178),#6);
#68=UNCERTAINTY_MEASURE_WITH_UNIT(LENGTH_MEASURE(1.0E-006),#70,'','');
#70= (CONVERSION_BASED_UNIT('MILLIMETRE',#181)LENGTH_UNIT()NAMED_UNIT(#184));
#71= (NAMED_UNIT(#186)PLANE_ANGLE_UNIT()SI_UNIT($,.RADIAN.));
#72= (NAMED_UNIT(#186)SOLID_ANGLE_UNIT()SI_UNIT($,.STERADIAN.));
#74=PRESENTATION_STYLE_ASSIGNMENT((#192));
#75=VERTEX_POINT('',#193);
#76=PRESENTATION_STYLE_ASSIGNMENT((#194));
#77=ADVANCED_FACE('',(#195),#196,.T.);
#78=PRESENTATION_STYLE_ASSIGNMENT((#197));
#79=EDGE_CURVE('',#83,#111,#198,.T.);
#80=PRESENTATION_STYLE_ASSIGNMENT((#199));
#81=EDGE_CURVE('',#157,#129,#200,.T.);
#82=PRESENTATION_STYLE_ASSIGNMENT((#201));
#83=VERTEX_POINT('',#202);
#84=PRESENTATION_STYLE_ASSIGNMENT((#203));
#85=ADVANCED_FACE('',(#204),#205,.T.);
#86=PRESENTATION_STYLE_ASSIGNMENT((#206));
#87=EDGE_CURVE('',#109,#135,#207,.T.);
#88=PRESENTATION_STYLE_ASSIGNMENT((#208));
#89=ADVANCED_FACE('',(#209),#210,.T.);
#90=PRESENTATION_STYLE_ASSIGNMENT((#211));
#91=EDGE_CURVE('',#169,#161,#212,.T.);
#92=PRESENTATION_STYLE_ASSIGNMENT((#213));
#93=VERTEX_POINT('',#214);
#94=PRESENTATION_STYLE_ASSIGNMENT((#215));
#95=EDGE_CURVE('',#161,#83,#216,.T.);
#96=PRESENTATION_STYLE_ASSIGNMENT((#217));
#97=EDGE_CURVE('',#93,#173,#218,.T.);
#98=PRESENTATION_STYLE_ASSIGNMENT((#219));
#99=VERTEX_POINT('',#220);
#100=PRESENTATION_STYLE_ASSIGNMENT((#221));
#101=EDGE_CURVE('',#75,#99,#222,.T.);
#102=PRESENTATION_STYLE_ASSIGNMENT((#223));
#103=EDGE_CURVE('',#167,#161,#224,.T.);
#104=PRESENTATION_STYLE_ASSIGNMENT((#225));
#105=EDGE_CURVE('',#169,#159,#226,.T.);
#106=PRESENTATION_STYLE_ASSIGNMENT((#227));
#107=EDGE_CURVE('',#127,#169,#228,.T.);
#108=PRESENTATION_STYLE_ASSIGNMENT((#229));
#109=VERTEX_POINT('',#230);
#110=PRESENTATION_STYLE_ASSIGNMENT((#231));
#111=VERTEX_POINT('',#232);
#112=PRESENTATION_STYLE_ASSIGNMENT((#233));
#113=EDGE_CURVE('',#93,#75,#234,.T.);
#114=PRESENTATION_STYLE_ASSIGNMENT((#235));
#115=EDGE_CURVE('',#159,#109,#236,.T.);
#116=PRESENTATION_STYLE_ASSIGNMENT((#237));
#117=EDGE_CURVE('',#135,#151,#238,.T.);
#118=PRESENTATION_STYLE_ASSIGNMENT((#239));
#119=EDGE_CURVE('',#159,#83,#240,.T.);
#120=PRESENTATION_STYLE_ASSIGNMENT((#241));
#121=EDGE_CURVE('',#111,#151,#242,.T.);
#122=PRESENTATION_STYLE_ASSIGNMENT((#243));
#123=EDGE_CURVE('',#135,#93,#244,.T.);
#124=PRESENTATION_STYLE_ASSIGNMENT((#245));
#125=ADVANCED_FACE('',(#246),#247,.T.);
#126=PRESENTATION_STYLE_ASSIGNMENT((#248));
#127=VERTEX_POINT('',#249);
#128=PRESENTATION_STYLE_ASSIGNMENT((#250));
#129=VERTEX_POINT('',#251);
#130=PRESENTATION_STYLE_ASSIGNMENT((#252));
#131=ADVANCED_FACE('',(#253),#254,.T.);
#132=PRESENTATION_STYLE_ASSIGNMENT((#255));
#133=EDGE_CURVE('',#127,#167,#256,.T.);
#134=PRESENTATION_STYLE_ASSIGNMENT((#257));
#135=VERTEX_POINT('',#258);
#136=PRESENTATION_STYLE_ASSIGNMENT((#259));
#137=ADVANCED_FACE('',(#260),#261,.T.);
#138=PRESENTATION_STYLE_ASSIGNMENT((#262));
#139=EDGE_CURVE('',#129,#167,#263,.T.);
#140=PRESENTATION_STYLE_ASSIGNMENT((#264));
#141=EDGE_CURVE('',#173,#99,#265,.T.);
#142=PRESENTATION_STYLE_ASSIGNMENT((#266));
#143=MANIFOLD_SOLID_BREP('1',#267);
#144=PRESENTATION_STYLE_ASSIGNMENT((#268));
#145=EDGE_CURVE('',#151,#173,#269,.T.);
#146=PRESENTATION_STYLE_ASSIGNMENT((#270));
#147=ADVANCED_FACE('',(#271),#272,.F.);
#148=PRESENTATION_STYLE_ASSIGNMENT((#273));
#149=EDGE_CURVE('',#157,#127,#274,.T.);
#150=PRESENTATION_STYLE_ASSIGNMENT((#275));
#151=VERTEX_POINT('',#276);
#152=PRESENTATION_STYLE_ASSIGNMENT((#277));
#153=ADVANCED_FACE('',(#278),#279,.T.);
#154=PRESENTATION_STYLE_ASSIGNMENT((#280));
#155=ADVANCED_FACE('',(#281),#282,.T.);
#156=PRESENTATION_STYLE_ASSIGNMENT((#283));
#157=VERTEX_POINT('',#284);
#158=PRESENTATION_STYLE_ASSIGNMENT((#285));
#159=VERTEX_POINT('',#286);
#160=PRESENTATION_STYLE_ASSIGNMENT((#287));
#161=VERTEX_POINT('',#288);
#162=PRESENTATION_STYLE_ASSIGNMENT((#289));
#163=EDGE_CURVE('',#109,#111,#290,.T.);
#164=PRESENTATION_STYLE_ASSIGNMENT((#291));
#165=EDGE_CURVE('',#75,#157,#292,.T.);
#166=PRESENTATION_STYLE_ASSIGNMENT((#293));
#167=VERTEX_POINT('',#294);
#168=PRESENTATION_STYLE_ASSIGNMENT((#295));
#169=VERTEX_POINT('',#296);
#170=PRESENTATION_STYLE_ASSIGNMENT((#297));
#171=EDGE_CURVE('',#99,#129,#298,.T.);
#172=PRESENTATION_STYLE_ASSIGNMENT((#299));
#173=VERTEX_POINT('',#300);
#174=PRESENTATION_STYLE_ASSIGNMENT((#301));
#175=ADVANCED_FACE('',(#302),#303,.T.);
#176=PRODUCT('1','1','PART-1-DESC',(#304));
#177=PRODUCT_DEFINITION('NONE','NONE',#305,#2);
#178=AXIS2_PLACEMENT_3D('',#306,#307,#308);
#181=LENGTH_MEASURE_WITH_UNIT(LENGTH_MEASURE(1.0),#309);
#184=DIMENSIONAL_EXPONENTS(1.0,0.0,0.0,0.0,0.0,0.0,0.0);
#186=DIMENSIONAL_EXPONENTS(0.0,0.0,0.0,0.0,0.0,0.0,0.0);
#192=POINT_STYLE(' ',#310,POSITIVE_LENGTH_MEASURE(1.0E-006),#311);
#193=CARTESIAN_POINT('',(2.58094233227323,0.0,0.0));
#194=SURFACE_STYLE_USAGE(.BOTH.,#312);
#195=FACE_OUTER_BOUND('',#313,.T.);
#196=PLANE('',#314);
#197=CURVE_STYLE('',#315,POSITIVE_LENGTH_MEASURE(1.0E-006),#316);
#198=LINE('',#317,#318);
#199=CURVE_STYLE('',#319,POSITIVE_LENGTH_MEASURE(1.0E-006),#320);
#200=LINE('',#321,#322);
#201=POINT_STYLE(' ',#323,POSITIVE_LENGTH_MEASURE(1.0E-006),#324);
#202=CARTESIAN_POINT('',(13.2990576677268,15.88,-7.18));
#203=SURFACE_STYLE_USAGE(.BOTH.,#325);
#204=FACE_OUTER_BOUND('',#326,.T.);
#205=PLANE('',#327);
#206=CURVE_STYLE('',#328,POSITIVE_LENGTH_MEASURE(1.0E-006),#329);
#207=LINE('',#330,#331);
#208=SURFACE_STYLE_USAGE(.BOTH.,#332);
#209=FACE_OUTER_BOUND('',#333,.T.);
#210=PLANE('',#334);
#211=CURVE_STYLE('',#335,POSITIVE_LENGTH_MEASURE(1.0E-006),#336);
#212=LINE('',#337,#338);
#213=POINT_STYLE(' ',#339,POSITIVE_LENGTH_MEASURE(1.0E-006),#340);
#214=CARTESIAN_POINT('',(2.5809423323E-006,2.5809397513309,0.0));
#215=CURVE_STYLE('',#341,POSITIVE_LENGTH_MEASURE(1.0E-006),#342);
#216=LINE('',#343,#344);
#217=CURVE_STYLE('',#345,POSITIVE_LENGTH_MEASURE(1.0E-006),#346);
#218=LINE('',#347,#348);
#219=POINT_STYLE(' ',#349,POSITIVE_LENGTH_MEASURE(1.0E-006),#350);
#220=CARTESIAN_POINT('',(2.58094233227323,0.0,-7.18));
#221=CURVE_STYLE('',#351,POSITIVE_LENGTH_MEASURE(1.0E-006),#352);
#222=LINE('',#353,#354);
#223=CURVE_STYLE('',#355,POSITIVE_LENGTH_MEASURE(1.0E-006),#356);
#224=LINE('',#357,#358);
#225=CURVE_STYLE('',#359,POSITIVE_LENGTH_MEASURE(1.0E-006),#360);
#226=LINE('',#361,#362);
#227=CURVE_STYLE('',#363,POSITIVE_LENGTH_MEASURE(1.0E-006),#364);
#228=LINE('',#365,#366);
#229=POINT_STYLE(' ',#367,POSITIVE_LENGTH_MEASURE(1.0E-006),#368);
#230=CARTESIAN_POINT('',(2.58093717038857,15.88,0.0));
#231=POINT_STYLE(' ',#369,POSITIVE_LENGTH_MEASURE(1.0E-006),#370);
#232=CARTESIAN_POINT('',(2.58093717038857,15.88,-7.18));
#233=CURVE_STYLE('',#371,POSITIVE_LENGTH_MEASURE(1.0E-006),#372);
#234=LINE('',#373,#374);
#235=CURVE_STYLE('',#375,POSITIVE_LENGTH_MEASURE(1.0E-006),#376);
#236=LINE('',#377,#378);
#237=CURVE_STYLE('',#379,POSITIVE_LENGTH_MEASURE(1.0E-006),#380);
#238=LINE('',#381,#382);
#239=CURVE_STYLE('',#383,POSITIVE_LENGTH_MEASURE(1.0E-006),#384);
#240=LINE('',#385,#386);
#241=CURVE_STYLE('',#387,POSITIVE_LENGTH_MEASURE(1.0E-006),#388);
#242=LINE('',#389,#390);
#243=CURVE_STYLE('',#391,POSITIVE_LENGTH_MEASURE(1.0E-006),#392);
#244=LINE('',#393,#394);
#245=SURFACE_STYLE_USAGE(.BOTH.,#395);
#246=FACE_OUTER_BOUND('',#396,.T.);
#247=PLANE('',#397);
#248=POINT_STYLE(' ',#398,POSITIVE_LENGTH_MEASURE(1.0E-006),#399);
#249=CARTESIAN_POINT('',(15.8800025809423,2.5809397513309,0.0));
#250=POINT_STYLE(' ',#400,POSITIVE_LENGTH_MEASURE(1.0E-006),#401);
#251=CARTESIAN_POINT('',(13.2990628296114,0.0,-7.18));
#252=SURFACE_STYLE_USAGE(.BOTH.,#402);
#253=FACE_OUTER_BOUND('',#403,.T.);
#254=PLANE('',#404);
#255=CURVE_STYLE('',#405,POSITIVE_LENGTH_MEASURE(1.0E-006),#406);
#256=LINE('',#407,#408);
#257=POINT_STYLE(' ',#409,POSITIVE_LENGTH_MEASURE(1.0E-006),#410);
#258=CARTESIAN_POINT('',(-2.58094233229755E-006,13.2990602486691,0.0));
#259=SURFACE_STYLE_USAGE(.BOTH.,#411);
#260=FACE_OUTER_BOUND('',#412,.T.);
#261=PLANE('',#413);
#262=CURVE_STYLE('',#414,POSITIVE_LENGTH_MEASURE(1.0E-006),#415);
#263=LINE('',#416,#417);
#264=CURVE_STYLE('',#418,POSITIVE_LENGTH_MEASURE(1.0E-006),#419);
#265=LINE('',#420,#421);
#266=SURFACE_STYLE_USAGE(.BOTH.,#422);
#267=CLOSED_SHELL('',(#131,#137,#155,#175,#77,#153,#85,#125,#147,#89));
#268=CURVE_STYLE('',#423,POSITIVE_LENGTH_MEASURE(1.0E-006),#424);
#269=LINE('',#425,#426);
#270=SURFACE_STYLE_USAGE(.BOTH.,#427);
#271=FACE_OUTER_BOUND('',#428,.T.);
#272=PLANE('',#429);
#273=CURVE_STYLE('',#430,POSITIVE_LENGTH_MEASURE(1.0E-006),#431);
#274=LINE('',#432,#433);
#275=POINT_STYLE(' ',#434,POSITIVE_LENGTH_MEASURE(1.0E-006),#435);
#276=CARTESIAN_POINT('',(-2.58094233229755E-006,13.2990602486691,-7.18));
#277=SURFACE_STYLE_USAGE(.BOTH.,#436);
#278=FACE_OUTER_BOUND('',#437,.T.);
#279=PLANE('',#438);
#280=SURFACE_STYLE_USAGE(.BOTH.,#439);
#281=FACE_OUTER_BOUND('',#440,.T.);
#282=PLANE('',#441);
#283=POINT_STYLE(' ',#442,POSITIVE_LENGTH_MEASURE(1.0E-006),#443);
#284=CARTESIAN_POINT('',(13.2990628296114,0.0,0.0));
#285=POINT_STYLE(' ',#444,POSITIVE_LENGTH_MEASURE(1.0E-006),#445);
#286=CARTESIAN_POINT('',(13.2990576677268,15.88,0.0));
#287=POINT_STYLE(' ',#446,POSITIVE_LENGTH_MEASURE(1.0E-006),#447);
#288=CARTESIAN_POINT('',(15.8799974190577,13.2990602486691,-7.18));
#289=CURVE_STYLE('',#448,POSITIVE_LENGTH_MEASURE(1.0E-006),#449);
#290=LINE('',#450,#451);
#291=CURVE_STYLE('',#452,POSITIVE_LENGTH_MEASURE(1.0E-006),#453);
#292=LINE('',#454,#455);
#293=POINT_STYLE(' ',#456,POSITIVE_LENGTH_MEASURE(1.0E-006),#457);
#294=CARTESIAN_POINT('',(15.8800025809423,2.5809397513309,-7.18));
#295=POINT_STYLE(' ',#458,POSITIVE_LENGTH_MEASURE(1.0E-006),#459);
#296=CARTESIAN_POINT('',(15.8799974190577,13.2990602486691,0.0));
#297=CURVE_STYLE('',#460,POSITIVE_LENGTH_MEASURE(1.0E-006),#461);
#298=LINE('',#462,#463);
#299=POINT_STYLE(' ',#464,POSITIVE_LENGTH_MEASURE(1.0E-006),#465);
#300=CARTESIAN_POINT('',(2.5809423323E-006,2.5809397513309,-7.18));
#301=SURFACE_STYLE_USAGE(.BOTH.,#466);
#302=FACE_OUTER_BOUND('',#467,.T.);
#303=PLANE('',#468);
#304=PRODUCT_CONTEXT('',#61,'mechanical');
#305=PRODUCT_DEFINITION_FORMATION_WITH_SPECIFIED_SOURCE(' ','NONE',#176,.NOT_KNOWN.);
#306=CARTESIAN_POINT('',(0.0,0.0,0.0));
#307=DIRECTION('',(0.0,0.0,1.0));
#308=DIRECTION('',(1.0,0.0,0.0));
#309= (NAMED_UNIT(#184)LENGTH_UNIT()SI_UNIT(.MILLI.,.METRE.));
#310=PRE_DEFINED_MARKER('');
#311=COLOUR_RGB('',0.800000011920929,0.800000011920929,0.800000011920929);
#312=SURFACE_SIDE_STYLE('',(#470));
#313=EDGE_LOOP('',(#471,#472,#473,#474));
#314=AXIS2_PLACEMENT_3D('',#475,#476,#477);
#315=DRAUGHTING_PRE_DEFINED_CURVE_FONT('continuous');
#316=COLOUR_RGB('',0.800000011920929,0.800000011920929,0.800000011920929);
#317=CARTESIAN_POINT('',(13.2990576677268,15.88,-7.18));
#318=VECTOR('',#478,1.0);
#319=DRAUGHTING_PRE_DEFINED_CURVE_FONT('continuous');
#320=COLOUR_RGB('',0.800000011920929,0.800000011920929,0.800000011920929);
#321=CARTESIAN_POINT('',(13.2990628296114,0.0,0.0));
#322=VECTOR('',#479,1.0);
#323=PRE_DEFINED_MARKER('');
#324=COLOUR_RGB('',0.800000011920929,0.800000011920929,0.800000011920929);
#325=SURFACE_SIDE_STYLE('',(#480));
#326=EDGE_LOOP('',(#481,#482,#483,#484));
#327=AXIS2_PLACEMENT_3D('',#485,#486,#487);
#328=DRAUGHTING_PRE_DEFINED_CURVE_FONT('continuous');
#329=COLOUR_RGB('',0.800000011920929,0.800000011920929,0.800000011920929);
#330=CARTESIAN_POINT('',(2.58093717038857,15.88,0.0));
#331=VECTOR('',#488,1.0);
#332=SURFACE_SIDE_STYLE('',(#489));
#333=EDGE_LOOP('',(#490,#491,#492,#493,#494,#495,#496,#497));
#334=AXIS2_PLACEMENT_3D('',#498,#499,#500);
#335=DRAUGHTING_PRE_DEFINED_CURVE_FONT('continuous');
#336=COLOUR_RGB('',0.800000011920929,0.800000011920929,0.800000011920929);
#337=CARTESIAN_POINT('',(15.8799974190577,13.2990602486691,0.0));
#338=VECTOR('',#501,1.0);
#339=PRE_DEFINED_MARKER('');
#340=COLOUR_RGB('',0.800000011920929,0.800000011920929,0.800000011920929);
#341=DRAUGHTING_PRE_DEFINED_CURVE_FONT('continuous');
#342=COLOUR_RGB('',0.800000011920929,0.800000011920929,0.800000011920929);
#343=CARTESIAN_POINT('',(15.8799974190577,13.2990602486691,-7.18));
#344=VECTOR('',#502,1.0);
#345=DRAUGHTING_PRE_DEFINED_CURVE_FONT('continuous');
#346=COLOUR_RGB('',0.800000011920929,0.800000011920929,0.800000011920929);
#347=CARTESIAN_POINT('',(2.5809423323E-006,2.5809397513309,0.0));
#348=VECTOR('',#503,1.0);
#349=PRE_DEFINED_MARKER('');
#350=COLOUR_RGB('',0.800000011920929,0.800000011920929,0.800000011920929);
#351=DRAUGHTING_PRE_DEFINED_CURVE_FONT('continuous');
#352=COLOUR_RGB('',0.800000011920929,0.800000011920929,0.800000011920929);
#353=CARTESIAN_POINT('',(2.58094233227323,0.0,0.0));
#354=VECTOR('',#504,1.0);
#355=DRAUGHTING_PRE_DEFINED_CURVE_FONT('continuous');
#356=COLOUR_RGB('',0.800000011920929,0.800000011920929,0.800000011920929);
#357=CARTESIAN_POINT('',(15.8800025809423,2.5809397513309,-7.18));
#358=VECTOR('',#505,1.0);
#359=DRAUGHTING_PRE_DEFINED_CURVE_FONT('continuous');
#360=COLOUR_RGB('',0.800000011920929,0.800000011920929,0.800000011920929);
#361=CARTESIAN_POINT('',(15.8799974190577,13.2990602486691,0.0));
#362=VECTOR('',#506,1.0);
#363=DRAUGHTING_PRE_DEFINED_CURVE_FONT('continuous');
#364=COLOUR_RGB('',0.800000011920929,0.800000011920929,0.800000011920929);
#365=CARTESIAN_POINT('',(15.8800025809423,2.5809397513309,0.0));
#366=VECTOR('',#507,1.0);
#367=PRE_DEFINED_MARKER('');
#368=COLOUR_RGB('',0.800000011920929,0.800000011920929,0.800000011920929);
#369=PRE_DEFINED_MARKER('');
#370=COLOUR_RGB('',0.800000011920929,0.800000011920929,0.800000011920929);
#371=DRAUGHTING_PRE_DEFINED_CURVE_FONT('continuous');
#372=COLOUR_RGB('',0.800000011920929,0.800000011920929,0.800000011920929);
#373=CARTESIAN_POINT('',(2.5809423323E-006,2.5809397513309,0.0));
#374=VECTOR('',#508,1.0);
#375=DRAUGHTING_PRE_DEFINED_CURVE_FONT('continuous');
#376=COLOUR_RGB('',0.800000011920929,0.800000011920929,0.800000011920929);
#377=CARTESIAN_POINT('',(13.2990576677268,15.88,0.0));
#378=VECTOR('',#509,1.0);
#379=DRAUGHTING_PRE_DEFINED_CURVE_FONT('continuous');
#380=COLOUR_RGB('',0.800000011920929,0.800000011920929,0.800000011920929);
#381=CARTESIAN_POINT('',(-2.58094233229755E-006,13.2990602486691,0.0));
#382=VECTOR('',#510,1.0);
#383=DRAUGHTING_PRE_DEFINED_CURVE_FONT('continuous');
#384=COLOUR_RGB('',0.800000011920929,0.800000011920929,0.800000011920929);
#385=CARTESIAN_POINT('',(13.2990576677268,15.88,0.0));
#386=VECTOR('',#511,1.0);
#387=DRAUGHTING_PRE_DEFINED_CURVE_FONT('continuous');
#388=COLOUR_RGB('',0.800000011920929,0.800000011920929,0.800000011920929);
#389=CARTESIAN_POINT('',(2.58093717038857,15.88,-7.18));
#390=VECTOR('',#512,1.0);
#391=DRAUGHTING_PRE_DEFINED_CURVE_FONT('continuous');
#392=COLOUR_RGB('',0.800000011920929,0.800000011920929,0.800000011920929);
#393=CARTESIAN_POINT('',(-2.5809423323E-006,13.2990602486691,0.0));
#394=VECTOR('',#513,1.0);
#395=SURFACE_SIDE_STYLE('',(#514));
#396=EDGE_LOOP('',(#515,#516,#517,#518));
#397=AXIS2_PLACEMENT_3D('',#519,#520,#521);
#398=PRE_DEFINED_MARKER('');
#399=COLOUR_RGB('',0.800000011920929,0.800000011920929,0.800000011920929);
#400=PRE_DEFINED_MARKER('');
#401=COLOUR_RGB('',0.800000011920929,0.800000011920929,0.800000011920929);
#402=SURFACE_SIDE_STYLE('',(#522));
#403=EDGE_LOOP('',(#523,#524,#525,#526));
#404=AXIS2_PLACEMENT_3D('',#527,#528,#529);
#405=DRAUGHTING_PRE_DEFINED_CURVE_FONT('continuous');
#406=COLOUR_RGB('',0.800000011920929,0.800000011920929,0.800000011920929);
#407=CARTESIAN_POINT('',(15.8800025809423,2.5809397513309,0.0));
#408=VECTOR('',#530,1.0);
#409=PRE_DEFINED_MARKER('');
#410=COLOUR_RGB('',0.800000011920929,0.800000011920929,0.800000011920929);
#411=SURFACE_SIDE_STYLE('',(#531));
#412=EDGE_LOOP('',(#532,#533,#534,#535));
#413=AXIS2_PLACEMENT_3D('',#536,#537,#538);
#414=DRAUGHTING_PRE_DEFINED_CURVE_FONT('continuous');
#415=COLOUR_RGB('',0.800000011920929,0.800000011920929,0.800000011920929);
#416=CARTESIAN_POINT('',(13.2990628296114,0.0,-7.18));
#417=VECTOR('',#539,1.0);
#418=DRAUGHTING_PRE_DEFINED_CURVE_FONT('continuous');
#419=COLOUR_RGB('',0.800000011920929,0.800000011920929,0.800000011920929);
#420=CARTESIAN_POINT('',(2.5809423323E-006,2.5809397513309,-7.18));
#421=VECTOR('',#540,1.0);
#422=SURFACE_SIDE_STYLE('',(#541));
#423=DRAUGHTING_PRE_DEFINED_CURVE_FONT('continuous');
#424=COLOUR_RGB('',0.800000011920929,0.800000011920929,0.800000011920929);
#425=CARTESIAN_POINT('',(-2.5809423323E-006,13.2990602486691,-7.18));
#426=VECTOR('',#542,1.0);
#427=SURFACE_SIDE_STYLE('',(#543));
#428=EDGE_LOOP('',(#544,#545,#546,#547,#548,#549,#550,#551));
#429=AXIS2_PLACEMENT_3D('',#552,#553,#554);
#430=DRAUGHTING_PRE_DEFINED_CURVE_FONT('continuous');
#431=COLOUR_RGB('',0.800000011920929,0.800000011920929,0.800000011920929);
#432=CARTESIAN_POINT('',(13.2990628296114,0.0,0.0));
#433=VECTOR('',#555,1.0);
#434=PRE_DEFINED_MARKER('');
#435=COLOUR_RGB('',0.800000011920929,0.800000011920929,0.800000011920929);
#436=SURFACE_SIDE_STYLE('',(#556));
#437=EDGE_LOOP('',(#557,#558,#559,#560));
#438=AXIS2_PLACEMENT_3D('',#561,#562,#563);
#439=SURFACE_SIDE_STYLE('',(#564));
#440=EDGE_LOOP('',(#565,#566,#567,#568));
#441=AXIS2_PLACEMENT_3D('',#569,#570,#571);
#442=PRE_DEFINED_MARKER('');
#443=COLOUR_RGB('',0.800000011920929,0.800000011920929,0.800000011920929);
#444=PRE_DEFINED_MARKER('');
#445=COLOUR_RGB('',0.800000011920929,0.800000011920929,0.800000011920929);
#446=PRE_DEFINED_MARKER('');
#447=COLOUR_RGB('',0.800000011920929,0.800000011920929,0.800000011920929);
#448=DRAUGHTING_PRE_DEFINED_CURVE_FONT('continuous');
#449=COLOUR_RGB('',0.800000011920929,0.800000011920929,0.800000011920929);
#450=CARTESIAN_POINT('',(2.58093717038857,15.88,0.0));
#451=VECTOR('',#572,1.0);
#452=DRAUGHTING_PRE_DEFINED_CURVE_FONT('continuous');
#453=COLOUR_RGB('',0.800000011920929,0.800000011920929,0.800000011920929);
#454=CARTESIAN_POINT('',(2.58094233227323,0.0,0.0));
#455=VECTOR('',#573,1.0);
#456=PRE_DEFINED_MARKER('');
#457=COLOUR_RGB('',0.800000011920929,0.800000011920929,0.800000011920929);
#458=PRE_DEFINED_MARKER('');
#459=COLOUR_RGB('',0.800000011920929,0.800000011920929,0.800000011920929);
#460=DRAUGHTING_PRE_DEFINED_CURVE_FONT('continuous');
#461=COLOUR_RGB('',0.800000011920929,0.800000011920929,0.800000011920929);
#462=CARTESIAN_POINT('',(2.58094233227323,0.0,-7.18));
#463=VECTOR('',#574,1.0);
#464=PRE_DEFINED_MARKER('');
#465=COLOUR_RGB('',0.800000011920929,0.800000011920929,0.800000011920929);
#466=SURFACE_SIDE_STYLE('',(#575));
#467=EDGE_LOOP('',(#576,#577,#578,#579));
#468=AXIS2_PLACEMENT_3D('',#580,#581,#582);
#470=SURFACE_STYLE_FILL_AREA(#583);
#471=ORIENTED_EDGE('',*,*,#121,.T.);
#472=ORIENTED_EDGE('',*,*,#117,.F.);
#473=ORIENTED_EDGE('',*,*,#87,.F.);
#474=ORIENTED_EDGE('',*,*,#163,.T.);
#475=CARTESIAN_POINT('',(2.58093717038857,15.88,0.0));
#476=DIRECTION('',(-0.707106781186548,0.707106781186548,0.0));
#477=DIRECTION('',(0.707106781186548,0.707106781186548,-0.0));
#478=DIRECTION('',(-1.0,0.0,0.0));
#479=DIRECTION('',(0.0,0.0,-1.0));
#480=SURFACE_STYLE_FILL_AREA(#584);
#481=ORIENTED_EDGE('',*,*,#141,.T.);
#482=ORIENTED_EDGE('',*,*,#101,.F.);
#483=ORIENTED_EDGE('',*,*,#113,.F.);
#484=ORIENTED_EDGE('',*,*,#97,.T.);
#485=CARTESIAN_POINT('',(2.5809423323E-006,2.5809397513309,0.0));
#486=DIRECTION('',(-0.707106781186547,-0.707106781186548,-0.0));
#487=DIRECTION('',(-0.707106781186548,0.707106781186547,0.0));
#488=DIRECTION('',(-0.707106781186548,-0.707106781186548,0.0));
#489=SURFACE_STYLE_FILL_AREA(#585);
#490=ORIENTED_EDGE('',*,*,#165,.T.);
#491=ORIENTED_EDGE('',*,*,#149,.T.);
#492=ORIENTED_EDGE('',*,*,#107,.T.);
#493=ORIENTED_EDGE('',*,*,#105,.T.);
#494=ORIENTED_EDGE('',*,*,#115,.T.);
#495=ORIENTED_EDGE('',*,*,#87,.T.);
#496=ORIENTED_EDGE('',*,*,#123,.T.);
#497=ORIENTED_EDGE('',*,*,#113,.T.);
#498=CARTESIAN_POINT('',(7.94,7.94,0.0));
#499=DIRECTION('',(0.0,0.0,1.0));
#500=DIRECTION('',(1.0,0.0,0.0));
#501=DIRECTION('',(0.0,0.0,-1.0));
#502=DIRECTION('',(-0.707106781186548,0.707106781186548,0.0));
#503=DIRECTION('',(0.0,0.0,-1.0));
#504=DIRECTION('',(0.0,0.0,-1.0));
#505=DIRECTION('',(-4.8160352990663E-007,0.999999999999884,0.0));
#506=DIRECTION('',(-0.707106781186548,0.707106781186548,0.0));
#507=DIRECTION('',(-4.8160352990663E-007,0.999999999999884,0.0));
#508=DIRECTION('',(0.707106781186548,-0.707106781186547,0.0));
#509=DIRECTION('',(-1.0,0.0,0.0));
#510=DIRECTION('',(0.0,0.0,-1.0));
#511=DIRECTION('',(0.0,0.0,-1.0));
#512=DIRECTION('',(-0.707106781186548,-0.707106781186548,0.0));
#513=DIRECTION('',(4.8160352982422E-007,-0.999999999999884,0.0));
#514=SURFACE_STYLE_FILL_AREA(#586);
#515=ORIENTED_EDGE('',*,*,#171,.T.);
#516=ORIENTED_EDGE('',*,*,#81,.F.);
#517=ORIENTED_EDGE('',*,*,#165,.F.);
#518=ORIENTED_EDGE('',*,*,#101,.T.);
#519=CARTESIAN_POINT('',(2.58094233227323,0.0,0.0));
#520=DIRECTION('',(0.0,-1.0,-0.0));
#521=DIRECTION('',(-1.0,0.0,-0.0));
#522=SURFACE_STYLE_FILL_AREA(#587);
#523=ORIENTED_EDGE('',*,*,#139,.T.);
#524=ORIENTED_EDGE('',*,*,#133,.F.);
#525=ORIENTED_EDGE('',*,*,#149,.F.);
#526=ORIENTED_EDGE('',*,*,#81,.T.);
#527=CARTESIAN_POINT('',(13.2990628296114,0.0,0.0));
#528=DIRECTION('',(0.707106781186547,-0.707106781186548,0.0));
#529=DIRECTION('',(-0.707106781186548,-0.707106781186547,-0.0));
#530=DIRECTION('',(0.0,0.0,-1.0));
#531=SURFACE_STYLE_FILL_AREA(#588);
#532=ORIENTED_EDGE('',*,*,#103,.T.);
#533=ORIENTED_EDGE('',*,*,#91,.F.);
#534=ORIENTED_EDGE('',*,*,#107,.F.);
#535=ORIENTED_EDGE('',*,*,#133,.T.);
#536=CARTESIAN_POINT('',(15.8800025809423,2.5809397513309,0.0));
#537=DIRECTION('',(0.999999999999884,4.8160352990663E-007,0.0));
#538=DIRECTION('',(4.8160352990663E-007,-0.999999999999884,-0.0));
#539=DIRECTION('',(0.707106781186548,0.707106781186547,0.0));
#540=DIRECTION('',(0.707106781186548,-0.707106781186547,0.0));
#541=SURFACE_STYLE_FILL_AREA(#589);
#542=DIRECTION('',(4.8160352982422E-007,-0.999999999999884,0.0));
#543=SURFACE_STYLE_FILL_AREA(#590);
#544=ORIENTED_EDGE('',*,*,#139,.F.);
#545=ORIENTED_EDGE('',*,*,#171,.F.);
#546=ORIENTED_EDGE('',*,*,#141,.F.);
#547=ORIENTED_EDGE('',*,*,#145,.F.);
#548=ORIENTED_EDGE('',*,*,#121,.F.);
#549=ORIENTED_EDGE('',*,*,#79,.F.);
#550=ORIENTED_EDGE('',*,*,#95,.F.);
#551=ORIENTED_EDGE('',*,*,#103,.F.);
#552=CARTESIAN_POINT('',(7.94,7.94,-7.18));
#553=DIRECTION('',(0.0,0.0,1.0));
#554=DIRECTION('',(1.0,0.0,0.0));
#555=DIRECTION('',(0.707106781186548,0.707106781186547,0.0));
#556=SURFACE_STYLE_FILL_AREA(#591);
#557=ORIENTED_EDGE('',*,*,#145,.T.);
#558=ORIENTED_EDGE('',*,*,#97,.F.);
#559=ORIENTED_EDGE('',*,*,#123,.F.);
#560=ORIENTED_EDGE('',*,*,#117,.T.);
#561=CARTESIAN_POINT('',(-2.58094233229755E-006,13.2990602486691,0.0));
#562=DIRECTION('',(-0.999999999999884,-4.8160352982422E-007,-0.0));
#563=DIRECTION('',(-4.8160352982422E-007,0.999999999999884,0.0));
#564=SURFACE_STYLE_FILL_AREA(#592);
#565=ORIENTED_EDGE('',*,*,#95,.T.);
#566=ORIENTED_EDGE('',*,*,#119,.F.);
#567=ORIENTED_EDGE('',*,*,#105,.F.);
#568=ORIENTED_EDGE('',*,*,#91,.T.);
#569=CARTESIAN_POINT('',(15.8799974190577,13.2990602486691,0.0));
#570=DIRECTION('',(0.707106781186548,0.707106781186548,0.0));
#571=DIRECTION('',(0.707106781186548,-0.707106781186548,-0.0));
#572=DIRECTION('',(0.0,0.0,-1.0));
#573=DIRECTION('',(1.0,0.0,0.0));
#574=DIRECTION('',(1.0,0.0,0.0));
#575=SURFACE_STYLE_FILL_AREA(#593);
#576=ORIENTED_EDGE('',*,*,#79,.T.);
#577=ORIENTED_EDGE('',*,*,#163,.F.);
#578=ORIENTED_EDGE('',*,*,#115,.F.);
#579=ORIENTED_EDGE('',*,*,#119,.T.);
#580=CARTESIAN_POINT('',(13.2990576677268,15.88,0.0));
#581=DIRECTION('',(0.0,1.0,0.0));
#582=DIRECTION('',(1.0,-0.0,-0.0));
#583=FILL_AREA_STYLE('',(#594));
#584=FILL_AREA_STYLE('',(#595));
#585=FILL_AREA_STYLE('',(#596));
#586=FILL_AREA_STYLE('',(#597));
#587=FILL_AREA_STYLE('',(#598));
#588=FILL_AREA_STYLE('',(#599));
#589=FILL_AREA_STYLE('',(#600));
#590=FILL_AREA_STYLE('',(#601));
#591=FILL_AREA_STYLE('',(#602));
#592=FILL_AREA_STYLE('',(#603));
#593=FILL_AREA_STYLE('',(#604));
#594=FILL_AREA_STYLE_COLOUR('',#605);
#595=FILL_AREA_STYLE_COLOUR('',#606);
#596=FILL_AREA_STYLE_COLOUR('',#607);
#597=FILL_AREA_STYLE_COLOUR('',#608);
#598=FILL_AREA_STYLE_COLOUR('',#609);
#599=FILL_AREA_STYLE_COLOUR('',#610);
#600=FILL_AREA_STYLE_COLOUR('',#611);
#601=FILL_AREA_STYLE_COLOUR('',#612);
#602=FILL_AREA_STYLE_COLOUR('',#613);
#603=FILL_AREA_STYLE_COLOUR('',#614);
#604=FILL_AREA_STYLE_COLOUR('',#615);
#605=COLOUR_RGB('',0.800000011920929,0.800000011920929,0.800000011920929);
#606=COLOUR_RGB('',0.800000011920929,0.800000011920929,0.800000011920929);
#607=COLOUR_RGB('',0.800000011920929,0.800000011920929,0.800000011920929);
#608=COLOUR_RGB('',0.800000011920929,0.800000011920929,0.800000011920929);
#609=COLOUR_RGB('',0.800000011920929,0.800000011920929,0.800000011920929);
#610=COLOUR_RGB('',0.800000011920929,0.800000011920929,0.800000011920929);
#611=COLOUR_RGB('',0.800000011920929,0.800000011920929,0.800000011920929);
#612=COLOUR_RGB('',0.800000011920929,0.800000011920929,0.800000011920929);
#613=COLOUR_RGB('',0.800000011920929,0.800000011920929,0.800000011920929);
#614=COLOUR_RGB('',0.800000011920929,0.800000011920929,0.800000011920929);
#615=COLOUR_RGB('',0.800000011920929,0.800000011920929,0.800000011920929);
#616=AXIS2_PLACEMENT_3D('PCS',#617,#618,#619);
#617=CARTESIAN_POINT('',(0.0,0.0,0.0));
#618=DIRECTION('',(0.0,0.0,1.0));
#619=DIRECTION('',(1.0,0.0,0.0));
#620=AXIS2_PLACEMENT_3D('MCS',#621,#622,#623);
#621=CARTESIAN_POINT('',(7.94,7.94,0.0));
#622=DIRECTION('',(0.0,0.0,1.0));
#623=DIRECTION('',(1.0,0.0,0.0));
#624=CONSTRUCTIVE_GEOMETRY_REPRESENTATION_RELATIONSHIP('coordinate systems',$,#65,#625);
#625=CONSTRUCTIVE_GEOMETRY_REPRESENTATION('coordinate systems',(#616,#620),#6);
ENDSEC;
END-ISO-10303-21;
