ISO-10303-21;
HEADER;
FILE_DESCRIPTION(('no description'),'unknown implementation level');
FILE_NAME('solidwHCQ5LyXXTaP6wmsL7wbPuJfnEU_1.STP','  ',('CIMSOURCE GmbH'),('CADClick - KiM GmbH - www.kimweb.de'),'unknown preprocess','ACIS','unknown authorization');
FILE_SCHEMA(('automotive_design'));
ENDSEC;
DATA;
#1=MECHANICAL_DESIGN_GEOMETRIC_PRESENTATION_REPRESENTATION(' ',(#10,#11,#12,#13,#14,#15,#16,#17,#18,#19,#20,#21,#22,#23,#24,#25,#26,#27,#28,#29,#30,#31,#32,#33,#34,#35,#36,#37,#38,#39,#40,#41,#42,#43,#44,#45,#46,#47,#48),#6);
#2=PRODUCT_DEFINITION_CONTEXT('',#49,'design');
#3=APPLICATION_PROTOCOL_DEFINITION('INTERNATIONAL STANDARD','automotive_design',1994,#49);
#4=PRODUCT_CATEGORY_RELATIONSHIP('NONE','NONE',#50,#51);
#5=SHAPE_DEFINITION_REPRESENTATION(#52,#53);
#6= (GEOMETRIC_REPRESENTATION_CONTEXT(3)GLOBAL_UNCERTAINTY_ASSIGNED_CONTEXT((#56))GLOBAL_UNIT_ASSIGNED_CONTEXT((#58,#59,#60))REPRESENTATION_CONTEXT('NONE','WORKSPACE'));
#10=STYLED_ITEM('',(#62),#63);
#11=STYLED_ITEM('',(#64),#65);
#12=STYLED_ITEM('',(#66),#67);
#13=STYLED_ITEM('',(#68),#69);
#14=STYLED_ITEM('',(#70),#71);
#15=STYLED_ITEM('',(#72),#73);
#16=STYLED_ITEM('',(#74),#75);
#17=STYLED_ITEM('',(#76),#77);
#18=STYLED_ITEM('',(#78),#79);
#19=STYLED_ITEM('',(#80),#81);
#20=STYLED_ITEM('',(#82),#83);
#21=STYLED_ITEM('',(#84),#85);
#22=STYLED_ITEM('',(#86),#87);
#23=STYLED_ITEM('',(#88),#89);
#24=STYLED_ITEM('',(#90),#91);
#25=STYLED_ITEM('',(#92),#93);
#26=STYLED_ITEM('',(#94),#95);
#27=STYLED_ITEM('',(#96),#97);
#28=STYLED_ITEM('',(#98),#99);
#29=STYLED_ITEM('',(#100),#101);
#30=STYLED_ITEM('',(#102),#103);
#31=STYLED_ITEM('',(#104),#105);
#32=STYLED_ITEM('',(#106),#107);
#33=STYLED_ITEM('',(#108),#109);
#34=STYLED_ITEM('',(#110),#111);
#35=STYLED_ITEM('',(#112),#113);
#36=STYLED_ITEM('',(#114),#115);
#37=STYLED_ITEM('',(#116),#117);
#38=STYLED_ITEM('',(#118),#119);
#39=STYLED_ITEM('',(#120),#121);
#40=STYLED_ITEM('',(#122),#123);
#41=STYLED_ITEM('',(#124),#125);
#42=STYLED_ITEM('',(#126),#127);
#43=STYLED_ITEM('',(#128),#129);
#44=STYLED_ITEM('',(#130),#131);
#45=STYLED_ITEM('',(#132),#133);
#46=STYLED_ITEM('',(#134),#135);
#47=STYLED_ITEM('',(#136),#137);
#48=STYLED_ITEM('',(#138),#139);
#49=APPLICATION_CONTEXT(' ');
#50=PRODUCT_CATEGORY('part','NONE');
#51=PRODUCT_RELATED_PRODUCT_CATEGORY('detail',' ',(#140));
#52=PRODUCT_DEFINITION_SHAPE('NONE','NONE',#141);
#53=ADVANCED_BREP_SHAPE_REPRESENTATION('1',(#129,#142),#6);
#56=UNCERTAINTY_MEASURE_WITH_UNIT(LENGTH_MEASURE(1.0E-006),#58,'','');
#58= (CONVERSION_BASED_UNIT('MILLIMETRE',#145)LENGTH_UNIT()NAMED_UNIT(#148));
#59= (NAMED_UNIT(#150)PLANE_ANGLE_UNIT()SI_UNIT($,.RADIAN.));
#60= (NAMED_UNIT(#150)SOLID_ANGLE_UNIT()SI_UNIT($,.STERADIAN.));
#62=PRESENTATION_STYLE_ASSIGNMENT((#156));
#63=EDGE_CURVE('',#75,#101,#157,.T.);
#64=PRESENTATION_STYLE_ASSIGNMENT((#158));
#65=ADVANCED_FACE('',(#159),#160,.T.);
#66=PRESENTATION_STYLE_ASSIGNMENT((#161));
#67=EDGE_CURVE('',#81,#119,#162,.T.);
#68=PRESENTATION_STYLE_ASSIGNMENT((#163));
#69=ADVANCED_FACE('',(#164),#165,.T.);
#70=PRESENTATION_STYLE_ASSIGNMENT((#166));
#71=EDGE_CURVE('',#121,#75,#167,.T.);
#72=PRESENTATION_STYLE_ASSIGNMENT((#168));
#73=EDGE_CURVE('',#95,#119,#169,.T.);
#74=PRESENTATION_STYLE_ASSIGNMENT((#170));
#75=VERTEX_POINT('',#171);
#76=PRESENTATION_STYLE_ASSIGNMENT((#172));
#77=ADVANCED_FACE('',(#173),#174,.T.);
#78=PRESENTATION_STYLE_ASSIGNMENT((#175));
#79=EDGE_CURVE('',#115,#103,#176,.T.);
#80=PRESENTATION_STYLE_ASSIGNMENT((#177));
#81=VERTEX_POINT('',#178);
#82=PRESENTATION_STYLE_ASSIGNMENT((#179));
#83=EDGE_CURVE('',#119,#75,#180,.T.);
#84=PRESENTATION_STYLE_ASSIGNMENT((#181));
#85=EDGE_CURVE('',#115,#133,#182,.T.);
#86=PRESENTATION_STYLE_ASSIGNMENT((#183));
#87=EDGE_CURVE('',#117,#95,#184,.T.);
#88=PRESENTATION_STYLE_ASSIGNMENT((#185));
#89=EDGE_CURVE('',#133,#137,#186,.T.);
#90=PRESENTATION_STYLE_ASSIGNMENT((#187));
#91=ADVANCED_FACE('',(#188),#189,.T.);
#92=PRESENTATION_STYLE_ASSIGNMENT((#190));
#93=ADVANCED_FACE('',(#191),#192,.T.);
#94=PRESENTATION_STYLE_ASSIGNMENT((#193));
#95=VERTEX_POINT('',#194);
#96=PRESENTATION_STYLE_ASSIGNMENT((#195));
#97=EDGE_CURVE('',#107,#101,#196,.T.);
#98=PRESENTATION_STYLE_ASSIGNMENT((#197));
#99=EDGE_CURVE('',#95,#121,#198,.T.);
#100=PRESENTATION_STYLE_ASSIGNMENT((#199));
#101=VERTEX_POINT('',#200);
#102=PRESENTATION_STYLE_ASSIGNMENT((#201));
#103=VERTEX_POINT('',#202);
#104=PRESENTATION_STYLE_ASSIGNMENT((#203));
#105=ADVANCED_FACE('',(#204),#205,.F.);
#106=PRESENTATION_STYLE_ASSIGNMENT((#206));
#107=VERTEX_POINT('',#207);
#108=PRESENTATION_STYLE_ASSIGNMENT((#208));
#109=EDGE_CURVE('',#107,#115,#209,.T.);
#110=PRESENTATION_STYLE_ASSIGNMENT((#210));
#111=ADVANCED_FACE('',(#211),#212,.T.);
#112=PRESENTATION_STYLE_ASSIGNMENT((#213));
#113=ADVANCED_FACE('',(#214),#215,.T.);
#114=PRESENTATION_STYLE_ASSIGNMENT((#216));
#115=VERTEX_POINT('',#217);
#116=PRESENTATION_STYLE_ASSIGNMENT((#218));
#117=VERTEX_POINT('',#219);
#118=PRESENTATION_STYLE_ASSIGNMENT((#220));
#119=VERTEX_POINT('',#221);
#120=PRESENTATION_STYLE_ASSIGNMENT((#222));
#121=VERTEX_POINT('',#223);
#122=PRESENTATION_STYLE_ASSIGNMENT((#224));
#123=EDGE_CURVE('',#137,#81,#225,.T.);
#124=PRESENTATION_STYLE_ASSIGNMENT((#226));
#125=EDGE_CURVE('',#101,#103,#227,.T.);
#126=PRESENTATION_STYLE_ASSIGNMENT((#228));
#127=EDGE_CURVE('',#103,#137,#229,.T.);
#128=PRESENTATION_STYLE_ASSIGNMENT((#230));
#129=MANIFOLD_SOLID_BREP('1',#231);
#130=PRESENTATION_STYLE_ASSIGNMENT((#232));
#131=EDGE_CURVE('',#117,#81,#233,.T.);
#132=PRESENTATION_STYLE_ASSIGNMENT((#234));
#133=VERTEX_POINT('',#235);
#134=PRESENTATION_STYLE_ASSIGNMENT((#236));
#135=EDGE_CURVE('',#121,#107,#237,.T.);
#136=PRESENTATION_STYLE_ASSIGNMENT((#238));
#137=VERTEX_POINT('',#239);
#138=PRESENTATION_STYLE_ASSIGNMENT((#240));
#139=EDGE_CURVE('',#133,#117,#241,.T.);
#140=PRODUCT('1','1','PART-1-DESC',(#242));
#141=PRODUCT_DEFINITION('NONE','NONE',#243,#2);
#142=AXIS2_PLACEMENT_3D('',#244,#245,#246);
#145=LENGTH_MEASURE_WITH_UNIT(LENGTH_MEASURE(1.0),#247);
#148=DIMENSIONAL_EXPONENTS(1.0,0.0,0.0,0.0,0.0,0.0,0.0);
#150=DIMENSIONAL_EXPONENTS(0.0,0.0,0.0,0.0,0.0,0.0,0.0);
#156=CURVE_STYLE('',#248,POSITIVE_LENGTH_MEASURE(1.0E-006),#249);
#157=LINE('',#250,#251);
#158=SURFACE_STYLE_USAGE(.BOTH.,#252);
#159=FACE_OUTER_BOUND('',#253,.T.);
#160=PLANE('',#254);
#161=CURVE_STYLE('',#255,POSITIVE_LENGTH_MEASURE(1.0E-006),#256);
#162=LINE('',#257,#258);
#163=SURFACE_STYLE_USAGE(.BOTH.,#259);
#164=FACE_OUTER_BOUND('',#260,.T.);
#165=PLANE('',#261);
#166=CURVE_STYLE('',#262,POSITIVE_LENGTH_MEASURE(1.0E-006),#263);
#167=LINE('',#264,#265);
#168=CURVE_STYLE('',#266,POSITIVE_LENGTH_MEASURE(1.0E-006),#267);
#169=LINE('',#268,#269);
#170=POINT_STYLE(' ',#270,POSITIVE_LENGTH_MEASURE(1.0E-006),#271);
#171=CARTESIAN_POINT('',(8.66025403793099,14.99999999995,-6.55));
#172=SURFACE_STYLE_USAGE(.BOTH.,#272);
#173=FACE_OUTER_BOUND('',#273,.T.);
#174=PLANE('',#274);
#175=CURVE_STYLE('',#275,POSITIVE_LENGTH_MEASURE(1.0E-006),#276);
#176=LINE('',#277,#278);
#177=POINT_STYLE(' ',#279,POSITIVE_LENGTH_MEASURE(1.0E-006),#280);
#178=CARTESIAN_POINT('',(18.0133283986297,1.19999999995,-6.55));
#179=CURVE_STYLE('',#281,POSITIVE_LENGTH_MEASURE(1.0E-006),#282);
#180=CIRCLE('',#283,0.800000000000002);
#181=CURVE_STYLE('',#284,POSITIVE_LENGTH_MEASURE(1.0E-006),#285);
#182=LINE('',#286,#287);
#183=CURVE_STYLE('',#288,POSITIVE_LENGTH_MEASURE(1.0E-006),#289);
#184=LINE('',#290,#291);
#185=CURVE_STYLE('',#292,POSITIVE_LENGTH_MEASURE(1.0E-006),#293);
#186=LINE('',#294,#295);
#187=SURFACE_STYLE_USAGE(.BOTH.,#296);
#188=FACE_OUTER_BOUND('',#297,.T.);
#189=CYLINDRICAL_SURFACE('',#298,0.800000000000001);
#190=SURFACE_STYLE_USAGE(.BOTH.,#299);
#191=FACE_OUTER_BOUND('',#300,.T.);
#192=CYLINDRICAL_SURFACE('',#301,0.800000000000002);
#193=POINT_STYLE(' ',#302,POSITIVE_LENGTH_MEASURE(1.0E-006),#303);
#194=CARTESIAN_POINT('',(10.0458946838995,15.0,0.0));
#195=CURVE_STYLE('',#304,POSITIVE_LENGTH_MEASURE(1.0E-006),#305);
#196=LINE('',#306,#307);
#197=CURVE_STYLE('',#308,POSITIVE_LENGTH_MEASURE(1.0E-006),#309);
#198=CIRCLE('',#310,0.800000000000002);
#199=POINT_STYLE(' ',#311,POSITIVE_LENGTH_MEASURE(1.0E-006),#312);
#200=CARTESIAN_POINT('',(0.692820323027551,1.2,-6.55));
#201=POINT_STYLE(' ',#313,POSITIVE_LENGTH_MEASURE(1.0E-006),#314);
#202=CARTESIAN_POINT('',(1.3856406460551,0.0,-6.55));
#203=SURFACE_STYLE_USAGE(.BOTH.,#315);
#204=FACE_OUTER_BOUND('',#316,.T.);
#205=PLANE('',#317);
#206=POINT_STYLE(' ',#318,POSITIVE_LENGTH_MEASURE(1.0E-006),#319);
#207=CARTESIAN_POINT('',(0.692820323027551,1.2,0.0));
#208=CURVE_STYLE('',#320,POSITIVE_LENGTH_MEASURE(1.0E-006),#321);
#209=CIRCLE('',#322,0.8);
#210=SURFACE_STYLE_USAGE(.BOTH.,#323);
#211=FACE_OUTER_BOUND('',#324,.T.);
#212=PLANE('',#325);
#213=SURFACE_STYLE_USAGE(.BOTH.,#326);
#214=FACE_OUTER_BOUND('',#327,.T.);
#215=CYLINDRICAL_SURFACE('',#328,0.8);
#216=POINT_STYLE(' ',#329,POSITIVE_LENGTH_MEASURE(1.0E-006),#330);
#217=CARTESIAN_POINT('',(1.3856406460551,0.0,0.0));
#218=POINT_STYLE(' ',#331,POSITIVE_LENGTH_MEASURE(1.0E-006),#332);
#219=CARTESIAN_POINT('',(18.0133283986297,1.19999999995,0.0));
#220=POINT_STYLE(' ',#333,POSITIVE_LENGTH_MEASURE(1.0E-006),#334);
#221=CARTESIAN_POINT('',(10.0458946838995,15.0,-6.55));
#222=POINT_STYLE(' ',#335,POSITIVE_LENGTH_MEASURE(1.0E-006),#336);
#223=CARTESIAN_POINT('',(8.66025403793099,14.99999999995,0.0));
#224=CURVE_STYLE('',#337,POSITIVE_LENGTH_MEASURE(1.0E-006),#338);
#225=CIRCLE('',#339,0.800000000000001);
#226=CURVE_STYLE('',#340,POSITIVE_LENGTH_MEASURE(1.0E-006),#341);
#227=CIRCLE('',#342,0.8);
#228=CURVE_STYLE('',#343,POSITIVE_LENGTH_MEASURE(1.0E-006),#344);
#229=LINE('',#345,#346);
#230=SURFACE_STYLE_USAGE(.BOTH.,#347);
#231=CLOSED_SHELL('',(#91,#111,#93,#65,#113,#69,#105,#77));
#232=CURVE_STYLE('',#348,POSITIVE_LENGTH_MEASURE(1.0E-006),#349);
#233=LINE('',#350,#351);
#234=POINT_STYLE(' ',#352,POSITIVE_LENGTH_MEASURE(1.0E-006),#353);
#235=CARTESIAN_POINT('',(17.3205080756888,0.0,0.0));
#236=CURVE_STYLE('',#354,POSITIVE_LENGTH_MEASURE(1.0E-006),#355);
#237=LINE('',#356,#357);
#238=POINT_STYLE(' ',#358,POSITIVE_LENGTH_MEASURE(1.0E-006),#359);
#239=CARTESIAN_POINT('',(17.3205080756888,0.0,-6.55));
#240=CURVE_STYLE('',#360,POSITIVE_LENGTH_MEASURE(1.0E-006),#361);
#241=CIRCLE('',#362,0.800000000000001);
#242=PRODUCT_CONTEXT('',#49,'mechanical');
#243=PRODUCT_DEFINITION_FORMATION_WITH_SPECIFIED_SOURCE(' ','NONE',#140,.NOT_KNOWN.);
#244=CARTESIAN_POINT('',(0.0,0.0,0.0));
#245=DIRECTION('',(0.0,0.0,1.0));
#246=DIRECTION('',(1.0,0.0,0.0));
#247= (NAMED_UNIT(#148)LENGTH_UNIT()SI_UNIT(.MILLI.,.METRE.));
#248=DRAUGHTING_PRE_DEFINED_CURVE_FONT('continuous');
#249=COLOUR_RGB('',0.800000011920929,0.800000011920929,0.800000011920929);
#250=CARTESIAN_POINT('',(8.66025403784439,15.0,-6.55));
#251=VECTOR('',#364,1.0);
#252=SURFACE_SIDE_STYLE('',(#365));
#253=EDGE_LOOP('',(#366,#367,#368,#369));
#254=AXIS2_PLACEMENT_3D('',#370,#371,#372);
#255=DRAUGHTING_PRE_DEFINED_CURVE_FONT('continuous');
#256=COLOUR_RGB('',0.800000011920929,0.800000011920929,0.800000011920929);
#257=CARTESIAN_POINT('',(18.0133283987163,1.2,-6.55));
#258=VECTOR('',#373,1.0);
#259=SURFACE_SIDE_STYLE('',(#374));
#260=EDGE_LOOP('',(#375,#376,#377,#378));
#261=AXIS2_PLACEMENT_3D('',#379,#380,#381);
#262=DRAUGHTING_PRE_DEFINED_CURVE_FONT('continuous');
#263=COLOUR_RGB('',0.800000011920929,0.800000011920929,0.800000011920929);
#264=CARTESIAN_POINT('',(8.66025403793099,14.99999999995,0.0));
#265=VECTOR('',#382,1.0);
#266=DRAUGHTING_PRE_DEFINED_CURVE_FONT('continuous');
#267=COLOUR_RGB('',0.800000011920929,0.800000011920929,0.800000011920929);
#268=CARTESIAN_POINT('',(10.0458946838995,15.0,0.0));
#269=VECTOR('',#383,1.0);
#270=PRE_DEFINED_MARKER('');
#271=COLOUR_RGB('',0.800000011920929,0.800000011920929,0.800000011920929);
#272=SURFACE_SIDE_STYLE('',(#384));
#273=EDGE_LOOP('',(#385,#386,#387,#388,#389,#390));
#274=AXIS2_PLACEMENT_3D('',#391,#392,#393);
#275=DRAUGHTING_PRE_DEFINED_CURVE_FONT('continuous');
#276=COLOUR_RGB('',0.800000011920929,0.800000011920929,0.800000011920929);
#277=CARTESIAN_POINT('',(1.3856406460551,0.0,0.0));
#278=VECTOR('',#394,1.0);
#279=PRE_DEFINED_MARKER('');
#280=COLOUR_RGB('',0.800000011920929,0.800000011920929,0.800000011920929);
#281=DRAUGHTING_PRE_DEFINED_CURVE_FONT('continuous');
#282=COLOUR_RGB('',0.800000011920929,0.800000011920929,0.800000011920929);
#283=AXIS2_PLACEMENT_3D('',#395,#396,#397);
#284=DRAUGHTING_PRE_DEFINED_CURVE_FONT('continuous');
#285=COLOUR_RGB('',0.800000011920929,0.800000011920929,0.800000011920929);
#286=CARTESIAN_POINT('',(1.3856406460551,0.0,0.0));
#287=VECTOR('',#398,1.0);
#288=DRAUGHTING_PRE_DEFINED_CURVE_FONT('continuous');
#289=COLOUR_RGB('',0.800000011920929,0.800000011920929,0.800000011920929);
#290=CARTESIAN_POINT('',(18.0133283987163,1.2,0.0));
#291=VECTOR('',#399,1.0);
#292=DRAUGHTING_PRE_DEFINED_CURVE_FONT('continuous');
#293=COLOUR_RGB('',0.800000011920929,0.800000011920929,0.800000011920929);
#294=CARTESIAN_POINT('',(17.3205080756888,0.0,0.0));
#295=VECTOR('',#400,1.0);
#296=SURFACE_SIDE_STYLE('',(#401));
#297=EDGE_LOOP('',(#402,#403,#404,#405));
#298=AXIS2_PLACEMENT_3D('',#406,#407,#408);
#299=SURFACE_SIDE_STYLE('',(#409));
#300=EDGE_LOOP('',(#410,#411,#412,#413));
#301=AXIS2_PLACEMENT_3D('',#414,#415,#416);
#302=PRE_DEFINED_MARKER('');
#303=COLOUR_RGB('',0.800000011920929,0.800000011920929,0.800000011920929);
#304=DRAUGHTING_PRE_DEFINED_CURVE_FONT('continuous');
#305=COLOUR_RGB('',0.800000011920929,0.800000011920929,0.800000011920929);
#306=CARTESIAN_POINT('',(0.692820323027551,1.2,0.0));
#307=VECTOR('',#417,1.0);
#308=DRAUGHTING_PRE_DEFINED_CURVE_FONT('continuous');
#309=COLOUR_RGB('',0.800000011920929,0.800000011920929,0.800000011920929);
#310=AXIS2_PLACEMENT_3D('',#418,#419,#420);
#311=PRE_DEFINED_MARKER('');
#312=COLOUR_RGB('',0.800000011920929,0.800000011920929,0.800000011920929);
#313=PRE_DEFINED_MARKER('');
#314=COLOUR_RGB('',0.800000011920929,0.800000011920929,0.800000011920929);
#315=SURFACE_SIDE_STYLE('',(#421));
#316=EDGE_LOOP('',(#422,#423,#424,#425,#426,#427));
#317=AXIS2_PLACEMENT_3D('',#428,#429,#430);
#318=PRE_DEFINED_MARKER('');
#319=COLOUR_RGB('',0.800000011920929,0.800000011920929,0.800000011920929);
#320=DRAUGHTING_PRE_DEFINED_CURVE_FONT('continuous');
#321=COLOUR_RGB('',0.800000011920929,0.800000011920929,0.800000011920929);
#322=AXIS2_PLACEMENT_3D('',#431,#432,#433);
#323=SURFACE_SIDE_STYLE('',(#434));
#324=EDGE_LOOP('',(#435,#436,#437,#438));
#325=AXIS2_PLACEMENT_3D('',#439,#440,#441);
#326=SURFACE_SIDE_STYLE('',(#442));
#327=EDGE_LOOP('',(#443,#444,#445,#446));
#328=AXIS2_PLACEMENT_3D('',#447,#448,#449);
#329=PRE_DEFINED_MARKER('');
#330=COLOUR_RGB('',0.800000011920929,0.800000011920929,0.800000011920929);
#331=PRE_DEFINED_MARKER('');
#332=COLOUR_RGB('',0.800000011920929,0.800000011920929,0.800000011920929);
#333=PRE_DEFINED_MARKER('');
#334=COLOUR_RGB('',0.800000011920929,0.800000011920929,0.800000011920929);
#335=PRE_DEFINED_MARKER('');
#336=COLOUR_RGB('',0.800000011920929,0.800000011920929,0.800000011920929);
#337=DRAUGHTING_PRE_DEFINED_CURVE_FONT('continuous');
#338=COLOUR_RGB('',0.800000011920929,0.800000011920929,0.800000011920929);
#339=AXIS2_PLACEMENT_3D('',#450,#451,#452);
#340=DRAUGHTING_PRE_DEFINED_CURVE_FONT('continuous');
#341=COLOUR_RGB('',0.800000011920929,0.800000011920929,0.800000011920929);
#342=AXIS2_PLACEMENT_3D('',#453,#454,#455);
#343=DRAUGHTING_PRE_DEFINED_CURVE_FONT('continuous');
#344=COLOUR_RGB('',0.800000011920929,0.800000011920929,0.800000011920929);
#345=CARTESIAN_POINT('',(1.3856406460551,0.0,-6.55));
#346=VECTOR('',#456,1.0);
#347=SURFACE_SIDE_STYLE('',(#457));
#348=DRAUGHTING_PRE_DEFINED_CURVE_FONT('continuous');
#349=COLOUR_RGB('',0.800000011920929,0.800000011920929,0.800000011920929);
#350=CARTESIAN_POINT('',(18.0133283986297,1.19999999995,0.0));
#351=VECTOR('',#458,1.0);
#352=PRE_DEFINED_MARKER('');
#353=COLOUR_RGB('',0.800000011920929,0.800000011920929,0.800000011920929);
#354=DRAUGHTING_PRE_DEFINED_CURVE_FONT('continuous');
#355=COLOUR_RGB('',0.800000011920929,0.800000011920929,0.800000011920929);
#356=CARTESIAN_POINT('',(8.66025403784439,15.0,0.0));
#357=VECTOR('',#459,1.0);
#358=PRE_DEFINED_MARKER('');
#359=COLOUR_RGB('',0.800000011920929,0.800000011920929,0.800000011920929);
#360=DRAUGHTING_PRE_DEFINED_CURVE_FONT('continuous');
#361=COLOUR_RGB('',0.800000011920929,0.800000011920929,0.800000011920929);
#362=AXIS2_PLACEMENT_3D('',#460,#461,#462);
#364=DIRECTION('',(-0.5,-0.866025403784439,0.0));
#365=SURFACE_STYLE_FILL_AREA(#463);
#366=ORIENTED_EDGE('',*,*,#63,.T.);
#367=ORIENTED_EDGE('',*,*,#97,.F.);
#368=ORIENTED_EDGE('',*,*,#135,.F.);
#369=ORIENTED_EDGE('',*,*,#71,.T.);
#370=CARTESIAN_POINT('',(8.66025403793099,14.99999999995,0.0));
#371=DIRECTION('',(-0.866025403784439,0.5,0.0));
#372=DIRECTION('',(0.5,0.866025403784439,-0.0));
#373=DIRECTION('',(-0.5,0.866025403784439,0.0));
#374=SURFACE_STYLE_FILL_AREA(#464);
#375=ORIENTED_EDGE('',*,*,#127,.T.);
#376=ORIENTED_EDGE('',*,*,#89,.F.);
#377=ORIENTED_EDGE('',*,*,#85,.F.);
#378=ORIENTED_EDGE('',*,*,#79,.T.);
#379=CARTESIAN_POINT('',(1.3856406460551,0.0,0.0));
#380=DIRECTION('',(0.0,-1.0,-0.0));
#381=DIRECTION('',(-1.0,0.0,-0.0));
#382=DIRECTION('',(0.0,0.0,-1.0));
#383=DIRECTION('',(0.0,0.0,-1.0));
#384=SURFACE_STYLE_FILL_AREA(#465);
#385=ORIENTED_EDGE('',*,*,#85,.T.);
#386=ORIENTED_EDGE('',*,*,#139,.T.);
#387=ORIENTED_EDGE('',*,*,#87,.T.);
#388=ORIENTED_EDGE('',*,*,#99,.T.);
#389=ORIENTED_EDGE('',*,*,#135,.T.);
#390=ORIENTED_EDGE('',*,*,#109,.T.);
#391=CARTESIAN_POINT('',(9.35307436087194,5.4,0.0));
#392=DIRECTION('',(0.0,0.0,1.0));
#393=DIRECTION('',(1.0,0.0,0.0));
#394=DIRECTION('',(0.0,0.0,-1.0));
#395=CARTESIAN_POINT('',(9.35307436087194,14.5999999998,-6.55));
#396=DIRECTION('',(0.0,-0.0,1.0));
#397=DIRECTION('',(0.866025403676183,0.500000000187505,0.0));
#398=DIRECTION('',(1.0,0.0,0.0));
#399=DIRECTION('',(-0.5,0.866025403784439,0.0));
#400=DIRECTION('',(0.0,0.0,-1.0));
#401=SURFACE_STYLE_FILL_AREA(#466);
#402=ORIENTED_EDGE('',*,*,#123,.T.);
#403=ORIENTED_EDGE('',*,*,#131,.F.);
#404=ORIENTED_EDGE('',*,*,#139,.F.);
#405=ORIENTED_EDGE('',*,*,#89,.T.);
#406=CARTESIAN_POINT('',(17.3205080755156,0.800000000100001,0.0));
#407=DIRECTION('',(-0.0,-0.0,1.0));
#408=DIRECTION('',(2.16506812478201E-010,-1.0,0.0));
#409=SURFACE_STYLE_FILL_AREA(#467);
#410=ORIENTED_EDGE('',*,*,#83,.T.);
#411=ORIENTED_EDGE('',*,*,#71,.F.);
#412=ORIENTED_EDGE('',*,*,#99,.F.);
#413=ORIENTED_EDGE('',*,*,#73,.T.);
#414=CARTESIAN_POINT('',(9.35307436087194,14.5999999998,0.0));
#415=DIRECTION('',(-0.0,-0.0,1.0));
#416=DIRECTION('',(0.866025403676183,0.500000000187505,0.0));
#417=DIRECTION('',(0.0,0.0,-1.0));
#418=CARTESIAN_POINT('',(9.35307436087194,14.5999999998,0.0));
#419=DIRECTION('',(0.0,-0.0,1.0));
#420=DIRECTION('',(0.866025403676183,0.500000000187505,0.0));
#421=SURFACE_STYLE_FILL_AREA(#468);
#422=ORIENTED_EDGE('',*,*,#123,.F.);
#423=ORIENTED_EDGE('',*,*,#127,.F.);
#424=ORIENTED_EDGE('',*,*,#125,.F.);
#425=ORIENTED_EDGE('',*,*,#63,.F.);
#426=ORIENTED_EDGE('',*,*,#83,.F.);
#427=ORIENTED_EDGE('',*,*,#67,.F.);
#428=CARTESIAN_POINT('',(9.35307436087194,5.4,-6.55));
#429=DIRECTION('',(0.0,0.0,1.0));
#430=DIRECTION('',(1.0,0.0,0.0));
#431=CARTESIAN_POINT('',(1.38564064622831,0.8000000001,0.0));
#432=DIRECTION('',(0.0,0.0,1.0));
#433=DIRECTION('',(-0.866025403892692,0.499999999812499,0.0));
#434=SURFACE_STYLE_FILL_AREA(#469);
#435=ORIENTED_EDGE('',*,*,#67,.T.);
#436=ORIENTED_EDGE('',*,*,#73,.F.);
#437=ORIENTED_EDGE('',*,*,#87,.F.);
#438=ORIENTED_EDGE('',*,*,#131,.T.);
#439=CARTESIAN_POINT('',(18.0133283986297,1.19999999995,0.0));
#440=DIRECTION('',(0.866025403784439,0.5,0.0));
#441=DIRECTION('',(0.5,-0.866025403784439,-0.0));
#442=SURFACE_STYLE_FILL_AREA(#470);
#443=ORIENTED_EDGE('',*,*,#125,.T.);
#444=ORIENTED_EDGE('',*,*,#79,.F.);
#445=ORIENTED_EDGE('',*,*,#109,.F.);
#446=ORIENTED_EDGE('',*,*,#97,.T.);
#447=CARTESIAN_POINT('',(1.38564064622831,0.8000000001,0.0));
#448=DIRECTION('',(-0.0,-0.0,1.0));
#449=DIRECTION('',(-0.866025403892692,0.499999999812499,0.0));
#450=CARTESIAN_POINT('',(17.3205080755156,0.800000000100001,-6.55));
#451=DIRECTION('',(0.0,0.0,1.0));
#452=DIRECTION('',(2.16506812478201E-010,-1.0,0.0));
#453=CARTESIAN_POINT('',(1.38564064622831,0.8000000001,-6.55));
#454=DIRECTION('',(0.0,0.0,1.0));
#455=DIRECTION('',(-0.866025403892692,0.499999999812499,0.0));
#456=DIRECTION('',(1.0,0.0,0.0));
#457=SURFACE_STYLE_FILL_AREA(#471);
#458=DIRECTION('',(0.0,0.0,-1.0));
#459=DIRECTION('',(-0.5,-0.866025403784439,0.0));
#460=CARTESIAN_POINT('',(17.3205080755156,0.800000000100001,0.0));
#461=DIRECTION('',(0.0,0.0,1.0));
#462=DIRECTION('',(2.16506812478201E-010,-1.0,0.0));
#463=FILL_AREA_STYLE('',(#472));
#464=FILL_AREA_STYLE('',(#473));
#465=FILL_AREA_STYLE('',(#474));
#466=FILL_AREA_STYLE('',(#475));
#467=FILL_AREA_STYLE('',(#476));
#468=FILL_AREA_STYLE('',(#477));
#469=FILL_AREA_STYLE('',(#478));
#470=FILL_AREA_STYLE('',(#479));
#471=FILL_AREA_STYLE('',(#480));
#472=FILL_AREA_STYLE_COLOUR('',#481);
#473=FILL_AREA_STYLE_COLOUR('',#482);
#474=FILL_AREA_STYLE_COLOUR('',#483);
#475=FILL_AREA_STYLE_COLOUR('',#484);
#476=FILL_AREA_STYLE_COLOUR('',#485);
#477=FILL_AREA_STYLE_COLOUR('',#486);
#478=FILL_AREA_STYLE_COLOUR('',#487);
#479=FILL_AREA_STYLE_COLOUR('',#488);
#480=FILL_AREA_STYLE_COLOUR('',#489);
#481=COLOUR_RGB('',0.800000011920929,0.800000011920929,0.800000011920929);
#482=COLOUR_RGB('',0.800000011920929,0.800000011920929,0.800000011920929);
#483=COLOUR_RGB('',0.800000011920929,0.800000011920929,0.800000011920929);
#484=COLOUR_RGB('',0.800000011920929,0.800000011920929,0.800000011920929);
#485=COLOUR_RGB('',0.800000011920929,0.800000011920929,0.800000011920929);
#486=COLOUR_RGB('',0.800000011920929,0.800000011920929,0.800000011920929);
#487=COLOUR_RGB('',0.800000011920929,0.800000011920929,0.800000011920929);
#488=COLOUR_RGB('',0.800000011920929,0.800000011920929,0.800000011920929);
#489=COLOUR_RGB('',0.800000011920929,0.800000011920929,0.800000011920929);
#490=AXIS2_PLACEMENT_3D('PCS',#491,#492,#493);
#491=CARTESIAN_POINT('',(0.0,0.0,0.0));
#492=DIRECTION('',(0.0,0.0,1.0));
#493=DIRECTION('',(1.0,0.0,0.0));
#494=AXIS2_PLACEMENT_3D('MCS',#495,#496,#497);
#495=CARTESIAN_POINT('',(9.35307436,5.4,0.0));
#496=DIRECTION('',(0.0,0.0,1.0));
#497=DIRECTION('',(1.0,0.0,0.0));
#498=CONSTRUCTIVE_GEOMETRY_REPRESENTATION_RELATIONSHIP('coordinate systems',$,#53,#499);
#499=CONSTRUCTIVE_GEOMETRY_REPRESENTATION('coordinate systems',(#490,#494),#6);
ENDSEC;
END-ISO-10303-21;
