ISO-10303-21;
HEADER;
FILE_DESCRIPTION(('no description'),'unknown implementation level');
FILE_NAME('solid1h6246c_x_pKMd8bfbd7mJkAmZU_1.STP','  ',('CIMSOURCE GmbH'),('CADClick - KiM GmbH - www.kimweb.de'),'unknown preprocess','ACIS','unknown authorization');
FILE_SCHEMA(('automotive_design'));
ENDSEC;
DATA;
#1=MECHANICAL_DESIGN_GEOMETRIC_PRESENTATION_REPRESENTATION(' ',(#10,#11,#12,#13,#14,#15,#16,#17,#18,#19,#20,#21,#22,#23,#24,#25,#26,#27,#28,#29,#30,#31,#32,#33,#34,#35,#36,#37,#38,#39,#40,#41,#42,#43,#44,#45,#46,#47,#48),#6);
#2=PRODUCT_DEFINITION_CONTEXT('',#49,'design');
#3=APPLICATION_PROTOCOL_DEFINITION('INTERNATIONAL STANDARD','automotive_design',1994,#49);
#4=PRODUCT_CATEGORY_RELATIONSHIP('NONE','NONE',#50,#51);
#5=SHAPE_DEFINITION_REPRESENTATION(#52,#53);
#6= (GEOMETRIC_REPRESENTATION_CONTEXT(3)GLOBAL_UNCERTAINTY_ASSIGNED_CONTEXT((#56))GLOBAL_UNIT_ASSIGNED_CONTEXT((#58,#59,#60))REPRESENTATION_CONTEXT('NONE','WORKSPACE'));
#10=STYLED_ITEM('',(#62),#63);
#11=STYLED_ITEM('',(#64),#65);
#12=STYLED_ITEM('',(#66),#67);
#13=STYLED_ITEM('',(#68),#69);
#14=STYLED_ITEM('',(#70),#71);
#15=STYLED_ITEM('',(#72),#73);
#16=STYLED_ITEM('',(#74),#75);
#17=STYLED_ITEM('',(#76),#77);
#18=STYLED_ITEM('',(#78),#79);
#19=STYLED_ITEM('',(#80),#81);
#20=STYLED_ITEM('',(#82),#83);
#21=STYLED_ITEM('',(#84),#85);
#22=STYLED_ITEM('',(#86),#87);
#23=STYLED_ITEM('',(#88),#89);
#24=STYLED_ITEM('',(#90),#91);
#25=STYLED_ITEM('',(#92),#93);
#26=STYLED_ITEM('',(#94),#95);
#27=STYLED_ITEM('',(#96),#97);
#28=STYLED_ITEM('',(#98),#99);
#29=STYLED_ITEM('',(#100),#101);
#30=STYLED_ITEM('',(#102),#103);
#31=STYLED_ITEM('',(#104),#105);
#32=STYLED_ITEM('',(#106),#107);
#33=STYLED_ITEM('',(#108),#109);
#34=STYLED_ITEM('',(#110),#111);
#35=STYLED_ITEM('',(#112),#113);
#36=STYLED_ITEM('',(#114),#115);
#37=STYLED_ITEM('',(#116),#117);
#38=STYLED_ITEM('',(#118),#119);
#39=STYLED_ITEM('',(#120),#121);
#40=STYLED_ITEM('',(#122),#123);
#41=STYLED_ITEM('',(#124),#125);
#42=STYLED_ITEM('',(#126),#127);
#43=STYLED_ITEM('',(#128),#129);
#44=STYLED_ITEM('',(#130),#131);
#45=STYLED_ITEM('',(#132),#133);
#46=STYLED_ITEM('',(#134),#135);
#47=STYLED_ITEM('',(#136),#137);
#48=STYLED_ITEM('',(#138),#139);
#49=APPLICATION_CONTEXT(' ');
#50=PRODUCT_CATEGORY('part','NONE');
#51=PRODUCT_RELATED_PRODUCT_CATEGORY('detail',' ',(#140));
#52=PRODUCT_DEFINITION_SHAPE('NONE','NONE',#141);
#53=ADVANCED_BREP_SHAPE_REPRESENTATION('1',(#109,#142),#6);
#56=UNCERTAINTY_MEASURE_WITH_UNIT(LENGTH_MEASURE(1.0E-006),#58,'','');
#58= (CONVERSION_BASED_UNIT('MILLIMETRE',#145)LENGTH_UNIT()NAMED_UNIT(#148));
#59= (NAMED_UNIT(#150)PLANE_ANGLE_UNIT()SI_UNIT($,.RADIAN.));
#60= (NAMED_UNIT(#150)SOLID_ANGLE_UNIT()SI_UNIT($,.STERADIAN.));
#62=PRESENTATION_STYLE_ASSIGNMENT((#156));
#63=ADVANCED_FACE('',(#157),#158,.T.);
#64=PRESENTATION_STYLE_ASSIGNMENT((#159));
#65=EDGE_CURVE('',#133,#131,#160,.T.);
#66=PRESENTATION_STYLE_ASSIGNMENT((#161));
#67=VERTEX_POINT('',#162);
#68=PRESENTATION_STYLE_ASSIGNMENT((#163));
#69=EDGE_CURVE('',#67,#117,#164,.T.);
#70=PRESENTATION_STYLE_ASSIGNMENT((#165));
#71=VERTEX_POINT('',#166);
#72=PRESENTATION_STYLE_ASSIGNMENT((#167));
#73=VERTEX_POINT('',#168);
#74=PRESENTATION_STYLE_ASSIGNMENT((#169));
#75=EDGE_CURVE('',#73,#71,#170,.T.);
#76=PRESENTATION_STYLE_ASSIGNMENT((#171));
#77=ADVANCED_FACE('',(#172),#173,.T.);
#78=PRESENTATION_STYLE_ASSIGNMENT((#174));
#79=EDGE_CURVE('',#101,#137,#175,.T.);
#80=PRESENTATION_STYLE_ASSIGNMENT((#176));
#81=VERTEX_POINT('',#177);
#82=PRESENTATION_STYLE_ASSIGNMENT((#178));
#83=ADVANCED_FACE('',(#179),#180,.T.);
#84=PRESENTATION_STYLE_ASSIGNMENT((#181));
#85=EDGE_CURVE('',#125,#107,#182,.T.);
#86=PRESENTATION_STYLE_ASSIGNMENT((#183));
#87=EDGE_CURVE('',#97,#107,#184,.T.);
#88=PRESENTATION_STYLE_ASSIGNMENT((#185));
#89=ADVANCED_FACE('',(#186),#187,.T.);
#90=PRESENTATION_STYLE_ASSIGNMENT((#188));
#91=EDGE_CURVE('',#107,#137,#189,.T.);
#92=PRESENTATION_STYLE_ASSIGNMENT((#190));
#93=EDGE_CURVE('',#101,#133,#191,.T.);
#94=PRESENTATION_STYLE_ASSIGNMENT((#192));
#95=EDGE_CURVE('',#131,#117,#193,.T.);
#96=PRESENTATION_STYLE_ASSIGNMENT((#194));
#97=VERTEX_POINT('',#195);
#98=PRESENTATION_STYLE_ASSIGNMENT((#196));
#99=EDGE_CURVE('',#133,#67,#197,.T.);
#100=PRESENTATION_STYLE_ASSIGNMENT((#198));
#101=VERTEX_POINT('',#199);
#102=PRESENTATION_STYLE_ASSIGNMENT((#200));
#103=EDGE_CURVE('',#117,#71,#201,.T.);
#104=PRESENTATION_STYLE_ASSIGNMENT((#202));
#105=EDGE_CURVE('',#73,#81,#203,.T.);
#106=PRESENTATION_STYLE_ASSIGNMENT((#204));
#107=VERTEX_POINT('',#205);
#108=PRESENTATION_STYLE_ASSIGNMENT((#206));
#109=MANIFOLD_SOLID_BREP('1',#207);
#110=PRESENTATION_STYLE_ASSIGNMENT((#208));
#111=ADVANCED_FACE('',(#209),#210,.F.);
#112=PRESENTATION_STYLE_ASSIGNMENT((#211));
#113=EDGE_CURVE('',#81,#125,#212,.T.);
#114=PRESENTATION_STYLE_ASSIGNMENT((#213));
#115=EDGE_CURVE('',#137,#131,#214,.T.);
#116=PRESENTATION_STYLE_ASSIGNMENT((#215));
#117=VERTEX_POINT('',#216);
#118=PRESENTATION_STYLE_ASSIGNMENT((#217));
#119=ADVANCED_FACE('',(#218),#219,.T.);
#120=PRESENTATION_STYLE_ASSIGNMENT((#220));
#121=ADVANCED_FACE('',(#221),#222,.T.);
#122=PRESENTATION_STYLE_ASSIGNMENT((#223));
#123=EDGE_CURVE('',#71,#125,#224,.T.);
#124=PRESENTATION_STYLE_ASSIGNMENT((#225));
#125=VERTEX_POINT('',#226);
#126=PRESENTATION_STYLE_ASSIGNMENT((#227));
#127=EDGE_CURVE('',#97,#101,#228,.T.);
#128=PRESENTATION_STYLE_ASSIGNMENT((#229));
#129=EDGE_CURVE('',#67,#73,#230,.T.);
#130=PRESENTATION_STYLE_ASSIGNMENT((#231));
#131=VERTEX_POINT('',#232);
#132=PRESENTATION_STYLE_ASSIGNMENT((#233));
#133=VERTEX_POINT('',#234);
#134=PRESENTATION_STYLE_ASSIGNMENT((#235));
#135=ADVANCED_FACE('',(#236),#237,.T.);
#136=PRESENTATION_STYLE_ASSIGNMENT((#238));
#137=VERTEX_POINT('',#239);
#138=PRESENTATION_STYLE_ASSIGNMENT((#240));
#139=EDGE_CURVE('',#81,#97,#241,.T.);
#140=PRODUCT('1','1','PART-1-DESC',(#242));
#141=PRODUCT_DEFINITION('NONE','NONE',#243,#2);
#142=AXIS2_PLACEMENT_3D('',#244,#245,#246);
#145=LENGTH_MEASURE_WITH_UNIT(LENGTH_MEASURE(1.0),#247);
#148=DIMENSIONAL_EXPONENTS(1.0,0.0,0.0,0.0,0.0,0.0,0.0);
#150=DIMENSIONAL_EXPONENTS(0.0,0.0,0.0,0.0,0.0,0.0,0.0);
#156=SURFACE_STYLE_USAGE(.BOTH.,#248);
#157=FACE_OUTER_BOUND('',#249,.T.);
#158=CYLINDRICAL_SURFACE('',#250,0.8);
#159=CURVE_STYLE('',#251,POSITIVE_LENGTH_MEASURE(1.0E-006),#252);
#160=LINE('',#253,#254);
#161=POINT_STYLE(' ',#255,POSITIVE_LENGTH_MEASURE(1.0E-006),#256);
#162=CARTESIAN_POINT('',(0.692820323027551,1.2,0.0));
#163=CURVE_STYLE('',#257,POSITIVE_LENGTH_MEASURE(1.0E-006),#258);
#164=LINE('',#259,#260);
#165=POINT_STYLE(' ',#261,POSITIVE_LENGTH_MEASURE(1.0E-006),#262);
#166=CARTESIAN_POINT('',(1.3856406460551,0.0,-6.55));
#167=POINT_STYLE(' ',#263,POSITIVE_LENGTH_MEASURE(1.0E-006),#264);
#168=CARTESIAN_POINT('',(1.3856406460551,0.0,0.0));
#169=CURVE_STYLE('',#265,POSITIVE_LENGTH_MEASURE(1.0E-006),#266);
#170=LINE('',#267,#268);
#171=SURFACE_STYLE_USAGE(.BOTH.,#269);
#172=FACE_OUTER_BOUND('',#270,.T.);
#173=CYLINDRICAL_SURFACE('',#271,0.800000000000002);
#174=CURVE_STYLE('',#272,POSITIVE_LENGTH_MEASURE(1.0E-006),#273);
#175=LINE('',#274,#275);
#176=POINT_STYLE(' ',#276,POSITIVE_LENGTH_MEASURE(1.0E-006),#277);
#177=CARTESIAN_POINT('',(17.3205080756888,0.0,0.0));
#178=SURFACE_STYLE_USAGE(.BOTH.,#278);
#179=FACE_OUTER_BOUND('',#279,.T.);
#180=PLANE('',#280);
#181=CURVE_STYLE('',#281,POSITIVE_LENGTH_MEASURE(1.0E-006),#282);
#182=CIRCLE('',#283,0.800000000000001);
#183=CURVE_STYLE('',#284,POSITIVE_LENGTH_MEASURE(1.0E-006),#285);
#184=LINE('',#286,#287);
#185=SURFACE_STYLE_USAGE(.BOTH.,#288);
#186=FACE_OUTER_BOUND('',#289,.T.);
#187=PLANE('',#290);
#188=CURVE_STYLE('',#291,POSITIVE_LENGTH_MEASURE(1.0E-006),#292);
#189=LINE('',#293,#294);
#190=CURVE_STYLE('',#295,POSITIVE_LENGTH_MEASURE(1.0E-006),#296);
#191=CIRCLE('',#297,0.800000000000002);
#192=CURVE_STYLE('',#298,POSITIVE_LENGTH_MEASURE(1.0E-006),#299);
#193=LINE('',#300,#301);
#194=POINT_STYLE(' ',#302,POSITIVE_LENGTH_MEASURE(1.0E-006),#303);
#195=CARTESIAN_POINT('',(18.0133283986297,1.19999999995,0.0));
#196=CURVE_STYLE('',#304,POSITIVE_LENGTH_MEASURE(1.0E-006),#305);
#197=LINE('',#306,#307);
#198=POINT_STYLE(' ',#308,POSITIVE_LENGTH_MEASURE(1.0E-006),#309);
#199=CARTESIAN_POINT('',(10.0458946838995,15.0,0.0));
#200=CURVE_STYLE('',#310,POSITIVE_LENGTH_MEASURE(1.0E-006),#311);
#201=CIRCLE('',#312,0.8);
#202=CURVE_STYLE('',#313,POSITIVE_LENGTH_MEASURE(1.0E-006),#314);
#203=LINE('',#315,#316);
#204=POINT_STYLE(' ',#317,POSITIVE_LENGTH_MEASURE(1.0E-006),#318);
#205=CARTESIAN_POINT('',(18.0133283986297,1.19999999995,-6.55));
#206=SURFACE_STYLE_USAGE(.BOTH.,#319);
#207=CLOSED_SHELL('',(#119,#83,#77,#121,#63,#135,#111,#89));
#208=SURFACE_STYLE_USAGE(.BOTH.,#320);
#209=FACE_OUTER_BOUND('',#321,.T.);
#210=PLANE('',#322);
#211=CURVE_STYLE('',#323,POSITIVE_LENGTH_MEASURE(1.0E-006),#324);
#212=LINE('',#325,#326);
#213=CURVE_STYLE('',#327,POSITIVE_LENGTH_MEASURE(1.0E-006),#328);
#214=CIRCLE('',#329,0.800000000000002);
#215=POINT_STYLE(' ',#330,POSITIVE_LENGTH_MEASURE(1.0E-006),#331);
#216=CARTESIAN_POINT('',(0.692820323027551,1.2,-6.55));
#217=SURFACE_STYLE_USAGE(.BOTH.,#332);
#218=FACE_OUTER_BOUND('',#333,.T.);
#219=CYLINDRICAL_SURFACE('',#334,0.800000000000001);
#220=SURFACE_STYLE_USAGE(.BOTH.,#335);
#221=FACE_OUTER_BOUND('',#336,.T.);
#222=PLANE('',#337);
#223=CURVE_STYLE('',#338,POSITIVE_LENGTH_MEASURE(1.0E-006),#339);
#224=LINE('',#340,#341);
#225=POINT_STYLE(' ',#342,POSITIVE_LENGTH_MEASURE(1.0E-006),#343);
#226=CARTESIAN_POINT('',(17.3205080756888,0.0,-6.55));
#227=CURVE_STYLE('',#344,POSITIVE_LENGTH_MEASURE(1.0E-006),#345);
#228=LINE('',#346,#347);
#229=CURVE_STYLE('',#348,POSITIVE_LENGTH_MEASURE(1.0E-006),#349);
#230=CIRCLE('',#350,0.8);
#231=POINT_STYLE(' ',#351,POSITIVE_LENGTH_MEASURE(1.0E-006),#352);
#232=CARTESIAN_POINT('',(8.66025403793099,14.99999999995,-6.55));
#233=POINT_STYLE(' ',#353,POSITIVE_LENGTH_MEASURE(1.0E-006),#354);
#234=CARTESIAN_POINT('',(8.66025403793099,14.99999999995,0.0));
#235=SURFACE_STYLE_USAGE(.BOTH.,#355);
#236=FACE_OUTER_BOUND('',#356,.T.);
#237=PLANE('',#357);
#238=POINT_STYLE(' ',#358,POSITIVE_LENGTH_MEASURE(1.0E-006),#359);
#239=CARTESIAN_POINT('',(10.0458946838995,15.0,-6.55));
#240=CURVE_STYLE('',#360,POSITIVE_LENGTH_MEASURE(1.0E-006),#361);
#241=CIRCLE('',#362,0.800000000000001);
#242=PRODUCT_CONTEXT('',#49,'mechanical');
#243=PRODUCT_DEFINITION_FORMATION_WITH_SPECIFIED_SOURCE(' ','NONE',#140,.NOT_KNOWN.);
#244=CARTESIAN_POINT('',(0.0,0.0,0.0));
#245=DIRECTION('',(0.0,0.0,1.0));
#246=DIRECTION('',(1.0,0.0,0.0));
#247= (NAMED_UNIT(#148)LENGTH_UNIT()SI_UNIT(.MILLI.,.METRE.));
#248=SURFACE_SIDE_STYLE('',(#364));
#249=EDGE_LOOP('',(#365,#366,#367,#368));
#250=AXIS2_PLACEMENT_3D('',#369,#370,#371);
#251=DRAUGHTING_PRE_DEFINED_CURVE_FONT('continuous');
#252=COLOUR_RGB('',0.800000011920929,0.800000011920929,0.800000011920929);
#253=CARTESIAN_POINT('',(8.66025403793099,14.99999999995,0.0));
#254=VECTOR('',#372,1.0);
#255=PRE_DEFINED_MARKER('');
#256=COLOUR_RGB('',0.800000011920929,0.800000011920929,0.800000011920929);
#257=DRAUGHTING_PRE_DEFINED_CURVE_FONT('continuous');
#258=COLOUR_RGB('',0.800000011920929,0.800000011920929,0.800000011920929);
#259=CARTESIAN_POINT('',(0.692820323027551,1.2,0.0));
#260=VECTOR('',#373,1.0);
#261=PRE_DEFINED_MARKER('');
#262=COLOUR_RGB('',0.800000011920929,0.800000011920929,0.800000011920929);
#263=PRE_DEFINED_MARKER('');
#264=COLOUR_RGB('',0.800000011920929,0.800000011920929,0.800000011920929);
#265=DRAUGHTING_PRE_DEFINED_CURVE_FONT('continuous');
#266=COLOUR_RGB('',0.800000011920929,0.800000011920929,0.800000011920929);
#267=CARTESIAN_POINT('',(1.3856406460551,0.0,0.0));
#268=VECTOR('',#374,1.0);
#269=SURFACE_SIDE_STYLE('',(#375));
#270=EDGE_LOOP('',(#376,#377,#378,#379));
#271=AXIS2_PLACEMENT_3D('',#380,#381,#382);
#272=DRAUGHTING_PRE_DEFINED_CURVE_FONT('continuous');
#273=COLOUR_RGB('',0.800000011920929,0.800000011920929,0.800000011920929);
#274=CARTESIAN_POINT('',(10.0458946838995,15.0,0.0));
#275=VECTOR('',#383,1.0);
#276=PRE_DEFINED_MARKER('');
#277=COLOUR_RGB('',0.800000011920929,0.800000011920929,0.800000011920929);
#278=SURFACE_SIDE_STYLE('',(#384));
#279=EDGE_LOOP('',(#385,#386,#387,#388));
#280=AXIS2_PLACEMENT_3D('',#389,#390,#391);
#281=DRAUGHTING_PRE_DEFINED_CURVE_FONT('continuous');
#282=COLOUR_RGB('',0.800000011920929,0.800000011920929,0.800000011920929);
#283=AXIS2_PLACEMENT_3D('',#392,#393,#394);
#284=DRAUGHTING_PRE_DEFINED_CURVE_FONT('continuous');
#285=COLOUR_RGB('',0.800000011920929,0.800000011920929,0.800000011920929);
#286=CARTESIAN_POINT('',(18.0133283986297,1.19999999995,0.0));
#287=VECTOR('',#395,1.0);
#288=SURFACE_SIDE_STYLE('',(#396));
#289=EDGE_LOOP('',(#397,#398,#399,#400,#401,#402));
#290=AXIS2_PLACEMENT_3D('',#403,#404,#405);
#291=DRAUGHTING_PRE_DEFINED_CURVE_FONT('continuous');
#292=COLOUR_RGB('',0.800000011920929,0.800000011920929,0.800000011920929);
#293=CARTESIAN_POINT('',(18.0133283987163,1.2,-6.55));
#294=VECTOR('',#406,1.0);
#295=DRAUGHTING_PRE_DEFINED_CURVE_FONT('continuous');
#296=COLOUR_RGB('',0.800000011920929,0.800000011920929,0.800000011920929);
#297=AXIS2_PLACEMENT_3D('',#407,#408,#409);
#298=DRAUGHTING_PRE_DEFINED_CURVE_FONT('continuous');
#299=COLOUR_RGB('',0.800000011920929,0.800000011920929,0.800000011920929);
#300=CARTESIAN_POINT('',(8.66025403784439,15.0,-6.55));
#301=VECTOR('',#410,1.0);
#302=PRE_DEFINED_MARKER('');
#303=COLOUR_RGB('',0.800000011920929,0.800000011920929,0.800000011920929);
#304=DRAUGHTING_PRE_DEFINED_CURVE_FONT('continuous');
#305=COLOUR_RGB('',0.800000011920929,0.800000011920929,0.800000011920929);
#306=CARTESIAN_POINT('',(8.66025403784439,15.0,0.0));
#307=VECTOR('',#411,1.0);
#308=PRE_DEFINED_MARKER('');
#309=COLOUR_RGB('',0.800000011920929,0.800000011920929,0.800000011920929);
#310=DRAUGHTING_PRE_DEFINED_CURVE_FONT('continuous');
#311=COLOUR_RGB('',0.800000011920929,0.800000011920929,0.800000011920929);
#312=AXIS2_PLACEMENT_3D('',#412,#413,#414);
#313=DRAUGHTING_PRE_DEFINED_CURVE_FONT('continuous');
#314=COLOUR_RGB('',0.800000011920929,0.800000011920929,0.800000011920929);
#315=CARTESIAN_POINT('',(1.3856406460551,0.0,0.0));
#316=VECTOR('',#415,1.0);
#317=PRE_DEFINED_MARKER('');
#318=COLOUR_RGB('',0.800000011920929,0.800000011920929,0.800000011920929);
#319=SURFACE_SIDE_STYLE('',(#416));
#320=SURFACE_SIDE_STYLE('',(#417));
#321=EDGE_LOOP('',(#418,#419,#420,#421,#422,#423));
#322=AXIS2_PLACEMENT_3D('',#424,#425,#426);
#323=DRAUGHTING_PRE_DEFINED_CURVE_FONT('continuous');
#324=COLOUR_RGB('',0.800000011920929,0.800000011920929,0.800000011920929);
#325=CARTESIAN_POINT('',(17.3205080756888,0.0,0.0));
#326=VECTOR('',#427,1.0);
#327=DRAUGHTING_PRE_DEFINED_CURVE_FONT('continuous');
#328=COLOUR_RGB('',0.800000011920929,0.800000011920929,0.800000011920929);
#329=AXIS2_PLACEMENT_3D('',#428,#429,#430);
#330=PRE_DEFINED_MARKER('');
#331=COLOUR_RGB('',0.800000011920929,0.800000011920929,0.800000011920929);
#332=SURFACE_SIDE_STYLE('',(#431));
#333=EDGE_LOOP('',(#432,#433,#434,#435));
#334=AXIS2_PLACEMENT_3D('',#436,#437,#438);
#335=SURFACE_SIDE_STYLE('',(#439));
#336=EDGE_LOOP('',(#440,#441,#442,#443));
#337=AXIS2_PLACEMENT_3D('',#444,#445,#446);
#338=DRAUGHTING_PRE_DEFINED_CURVE_FONT('continuous');
#339=COLOUR_RGB('',0.800000011920929,0.800000011920929,0.800000011920929);
#340=CARTESIAN_POINT('',(1.3856406460551,0.0,-6.55));
#341=VECTOR('',#447,1.0);
#342=PRE_DEFINED_MARKER('');
#343=COLOUR_RGB('',0.800000011920929,0.800000011920929,0.800000011920929);
#344=DRAUGHTING_PRE_DEFINED_CURVE_FONT('continuous');
#345=COLOUR_RGB('',0.800000011920929,0.800000011920929,0.800000011920929);
#346=CARTESIAN_POINT('',(18.0133283987163,1.2,0.0));
#347=VECTOR('',#448,1.0);
#348=DRAUGHTING_PRE_DEFINED_CURVE_FONT('continuous');
#349=COLOUR_RGB('',0.800000011920929,0.800000011920929,0.800000011920929);
#350=AXIS2_PLACEMENT_3D('',#449,#450,#451);
#351=PRE_DEFINED_MARKER('');
#352=COLOUR_RGB('',0.800000011920929,0.800000011920929,0.800000011920929);
#353=PRE_DEFINED_MARKER('');
#354=COLOUR_RGB('',0.800000011920929,0.800000011920929,0.800000011920929);
#355=SURFACE_SIDE_STYLE('',(#452));
#356=EDGE_LOOP('',(#453,#454,#455,#456));
#357=AXIS2_PLACEMENT_3D('',#457,#458,#459);
#358=PRE_DEFINED_MARKER('');
#359=COLOUR_RGB('',0.800000011920929,0.800000011920929,0.800000011920929);
#360=DRAUGHTING_PRE_DEFINED_CURVE_FONT('continuous');
#361=COLOUR_RGB('',0.800000011920929,0.800000011920929,0.800000011920929);
#362=AXIS2_PLACEMENT_3D('',#460,#461,#462);
#364=SURFACE_STYLE_FILL_AREA(#463);
#365=ORIENTED_EDGE('',*,*,#103,.T.);
#366=ORIENTED_EDGE('',*,*,#75,.F.);
#367=ORIENTED_EDGE('',*,*,#129,.F.);
#368=ORIENTED_EDGE('',*,*,#69,.T.);
#369=CARTESIAN_POINT('',(1.38564064622831,0.8000000001,0.0));
#370=DIRECTION('',(-0.0,-0.0,1.0));
#371=DIRECTION('',(-0.866025403892692,0.499999999812499,0.0));
#372=DIRECTION('',(0.0,0.0,-1.0));
#373=DIRECTION('',(0.0,0.0,-1.0));
#374=DIRECTION('',(0.0,0.0,-1.0));
#375=SURFACE_STYLE_FILL_AREA(#464);
#376=ORIENTED_EDGE('',*,*,#115,.T.);
#377=ORIENTED_EDGE('',*,*,#65,.F.);
#378=ORIENTED_EDGE('',*,*,#93,.F.);
#379=ORIENTED_EDGE('',*,*,#79,.T.);
#380=CARTESIAN_POINT('',(9.35307436087194,14.5999999998,0.0));
#381=DIRECTION('',(-0.0,-0.0,1.0));
#382=DIRECTION('',(0.866025403676183,0.500000000187505,0.0));
#383=DIRECTION('',(0.0,0.0,-1.0));
#384=SURFACE_STYLE_FILL_AREA(#465);
#385=ORIENTED_EDGE('',*,*,#91,.T.);
#386=ORIENTED_EDGE('',*,*,#79,.F.);
#387=ORIENTED_EDGE('',*,*,#127,.F.);
#388=ORIENTED_EDGE('',*,*,#87,.T.);
#389=CARTESIAN_POINT('',(18.0133283986297,1.19999999995,0.0));
#390=DIRECTION('',(0.866025403784439,0.5,0.0));
#391=DIRECTION('',(0.5,-0.866025403784439,-0.0));
#392=CARTESIAN_POINT('',(17.3205080755156,0.800000000100001,-6.55));
#393=DIRECTION('',(0.0,0.0,1.0));
#394=DIRECTION('',(2.16506812478201E-010,-1.0,0.0));
#395=DIRECTION('',(0.0,0.0,-1.0));
#396=SURFACE_STYLE_FILL_AREA(#466);
#397=ORIENTED_EDGE('',*,*,#105,.T.);
#398=ORIENTED_EDGE('',*,*,#139,.T.);
#399=ORIENTED_EDGE('',*,*,#127,.T.);
#400=ORIENTED_EDGE('',*,*,#93,.T.);
#401=ORIENTED_EDGE('',*,*,#99,.T.);
#402=ORIENTED_EDGE('',*,*,#129,.T.);
#403=CARTESIAN_POINT('',(9.35307436087194,5.4,0.0));
#404=DIRECTION('',(0.0,0.0,1.0));
#405=DIRECTION('',(1.0,0.0,0.0));
#406=DIRECTION('',(-0.5,0.866025403784439,0.0));
#407=CARTESIAN_POINT('',(9.35307436087194,14.5999999998,0.0));
#408=DIRECTION('',(0.0,-0.0,1.0));
#409=DIRECTION('',(0.866025403676183,0.500000000187505,0.0));
#410=DIRECTION('',(-0.5,-0.866025403784439,0.0));
#411=DIRECTION('',(-0.5,-0.866025403784439,0.0));
#412=CARTESIAN_POINT('',(1.38564064622831,0.8000000001,-6.55));
#413=DIRECTION('',(0.0,0.0,1.0));
#414=DIRECTION('',(-0.866025403892692,0.499999999812499,0.0));
#415=DIRECTION('',(1.0,0.0,0.0));
#416=SURFACE_STYLE_FILL_AREA(#467);
#417=SURFACE_STYLE_FILL_AREA(#468);
#418=ORIENTED_EDGE('',*,*,#85,.F.);
#419=ORIENTED_EDGE('',*,*,#123,.F.);
#420=ORIENTED_EDGE('',*,*,#103,.F.);
#421=ORIENTED_EDGE('',*,*,#95,.F.);
#422=ORIENTED_EDGE('',*,*,#115,.F.);
#423=ORIENTED_EDGE('',*,*,#91,.F.);
#424=CARTESIAN_POINT('',(9.35307436087194,5.4,-6.55));
#425=DIRECTION('',(0.0,0.0,1.0));
#426=DIRECTION('',(1.0,0.0,0.0));
#427=DIRECTION('',(0.0,0.0,-1.0));
#428=CARTESIAN_POINT('',(9.35307436087194,14.5999999998,-6.55));
#429=DIRECTION('',(0.0,-0.0,1.0));
#430=DIRECTION('',(0.866025403676183,0.500000000187505,0.0));
#431=SURFACE_STYLE_FILL_AREA(#469);
#432=ORIENTED_EDGE('',*,*,#85,.T.);
#433=ORIENTED_EDGE('',*,*,#87,.F.);
#434=ORIENTED_EDGE('',*,*,#139,.F.);
#435=ORIENTED_EDGE('',*,*,#113,.T.);
#436=CARTESIAN_POINT('',(17.3205080755156,0.800000000100001,0.0));
#437=DIRECTION('',(-0.0,-0.0,1.0));
#438=DIRECTION('',(2.16506812478201E-010,-1.0,0.0));
#439=SURFACE_STYLE_FILL_AREA(#470);
#440=ORIENTED_EDGE('',*,*,#95,.T.);
#441=ORIENTED_EDGE('',*,*,#69,.F.);
#442=ORIENTED_EDGE('',*,*,#99,.F.);
#443=ORIENTED_EDGE('',*,*,#65,.T.);
#444=CARTESIAN_POINT('',(8.66025403793099,14.99999999995,0.0));
#445=DIRECTION('',(-0.866025403784439,0.5,0.0));
#446=DIRECTION('',(0.5,0.866025403784439,-0.0));
#447=DIRECTION('',(1.0,0.0,0.0));
#448=DIRECTION('',(-0.5,0.866025403784439,0.0));
#449=CARTESIAN_POINT('',(1.38564064622831,0.8000000001,0.0));
#450=DIRECTION('',(0.0,0.0,1.0));
#451=DIRECTION('',(-0.866025403892692,0.499999999812499,0.0));
#452=SURFACE_STYLE_FILL_AREA(#471);
#453=ORIENTED_EDGE('',*,*,#123,.T.);
#454=ORIENTED_EDGE('',*,*,#113,.F.);
#455=ORIENTED_EDGE('',*,*,#105,.F.);
#456=ORIENTED_EDGE('',*,*,#75,.T.);
#457=CARTESIAN_POINT('',(1.3856406460551,0.0,0.0));
#458=DIRECTION('',(0.0,-1.0,-0.0));
#459=DIRECTION('',(-1.0,0.0,-0.0));
#460=CARTESIAN_POINT('',(17.3205080755156,0.800000000100001,0.0));
#461=DIRECTION('',(0.0,0.0,1.0));
#462=DIRECTION('',(2.16506812478201E-010,-1.0,0.0));
#463=FILL_AREA_STYLE('',(#472));
#464=FILL_AREA_STYLE('',(#473));
#465=FILL_AREA_STYLE('',(#474));
#466=FILL_AREA_STYLE('',(#475));
#467=FILL_AREA_STYLE('',(#476));
#468=FILL_AREA_STYLE('',(#477));
#469=FILL_AREA_STYLE('',(#478));
#470=FILL_AREA_STYLE('',(#479));
#471=FILL_AREA_STYLE('',(#480));
#472=FILL_AREA_STYLE_COLOUR('',#481);
#473=FILL_AREA_STYLE_COLOUR('',#482);
#474=FILL_AREA_STYLE_COLOUR('',#483);
#475=FILL_AREA_STYLE_COLOUR('',#484);
#476=FILL_AREA_STYLE_COLOUR('',#485);
#477=FILL_AREA_STYLE_COLOUR('',#486);
#478=FILL_AREA_STYLE_COLOUR('',#487);
#479=FILL_AREA_STYLE_COLOUR('',#488);
#480=FILL_AREA_STYLE_COLOUR('',#489);
#481=COLOUR_RGB('',0.800000011920929,0.800000011920929,0.800000011920929);
#482=COLOUR_RGB('',0.800000011920929,0.800000011920929,0.800000011920929);
#483=COLOUR_RGB('',0.800000011920929,0.800000011920929,0.800000011920929);
#484=COLOUR_RGB('',0.800000011920929,0.800000011920929,0.800000011920929);
#485=COLOUR_RGB('',0.800000011920929,0.800000011920929,0.800000011920929);
#486=COLOUR_RGB('',0.800000011920929,0.800000011920929,0.800000011920929);
#487=COLOUR_RGB('',0.800000011920929,0.800000011920929,0.800000011920929);
#488=COLOUR_RGB('',0.800000011920929,0.800000011920929,0.800000011920929);
#489=COLOUR_RGB('',0.800000011920929,0.800000011920929,0.800000011920929);
#490=AXIS2_PLACEMENT_3D('PCS',#491,#492,#493);
#491=CARTESIAN_POINT('',(0.0,0.0,0.0));
#492=DIRECTION('',(0.0,0.0,1.0));
#493=DIRECTION('',(1.0,0.0,0.0));
#494=AXIS2_PLACEMENT_3D('MCS',#495,#496,#497);
#495=CARTESIAN_POINT('',(9.35307436,5.4,0.0));
#496=DIRECTION('',(0.0,0.0,1.0));
#497=DIRECTION('',(1.0,0.0,0.0));
#498=CONSTRUCTIVE_GEOMETRY_REPRESENTATION_RELATIONSHIP('coordinate systems',$,#53,#499);
#499=CONSTRUCTIVE_GEOMETRY_REPRESENTATION('coordinate systems',(#490,#494),#6);
ENDSEC;
END-ISO-10303-21;
