ISO-10303-21;
HEADER;
FILE_DESCRIPTION(('no description'),'unknown implementation level');
FILE_NAME('solid4WfOJT7pfUuNKFC6jwOmXQJ_59A_1.STP','  ',('CIMSOURCE GmbH'),('CADClick - KiM GmbH - www.kimweb.de'),'unknown preprocess','ACIS','unknown authorization');
FILE_SCHEMA(('automotive_design'));
ENDSEC;
DATA;
#1=MECHANICAL_DESIGN_GEOMETRIC_PRESENTATION_REPRESENTATION(' ',(#10,#11,#12,#13,#14,#15,#16,#17,#18,#19,#20,#21,#22,#23,#24,#25,#26,#27,#28,#29,#30,#31,#32,#33,#34,#35,#36,#37,#38,#39,#40,#41,#42,#43,#44,#45,#46,#47,#48),#6);
#2=PRODUCT_DEFINITION_CONTEXT('',#49,'design');
#3=APPLICATION_PROTOCOL_DEFINITION('INTERNATIONAL STANDARD','automotive_design',1994,#49);
#4=PRODUCT_CATEGORY_RELATIONSHIP('NONE','NONE',#50,#51);
#5=SHAPE_DEFINITION_REPRESENTATION(#52,#53);
#6= (GEOMETRIC_REPRESENTATION_CONTEXT(3)GLOBAL_UNCERTAINTY_ASSIGNED_CONTEXT((#56))GLOBAL_UNIT_ASSIGNED_CONTEXT((#58,#59,#60))REPRESENTATION_CONTEXT('NONE','WORKSPACE'));
#10=STYLED_ITEM('',(#62),#63);
#11=STYLED_ITEM('',(#64),#65);
#12=STYLED_ITEM('',(#66),#67);
#13=STYLED_ITEM('',(#68),#69);
#14=STYLED_ITEM('',(#70),#71);
#15=STYLED_ITEM('',(#72),#73);
#16=STYLED_ITEM('',(#74),#75);
#17=STYLED_ITEM('',(#76),#77);
#18=STYLED_ITEM('',(#78),#79);
#19=STYLED_ITEM('',(#80),#81);
#20=STYLED_ITEM('',(#82),#83);
#21=STYLED_ITEM('',(#84),#85);
#22=STYLED_ITEM('',(#86),#87);
#23=STYLED_ITEM('',(#88),#89);
#24=STYLED_ITEM('',(#90),#91);
#25=STYLED_ITEM('',(#92),#93);
#26=STYLED_ITEM('',(#94),#95);
#27=STYLED_ITEM('',(#96),#97);
#28=STYLED_ITEM('',(#98),#99);
#29=STYLED_ITEM('',(#100),#101);
#30=STYLED_ITEM('',(#102),#103);
#31=STYLED_ITEM('',(#104),#105);
#32=STYLED_ITEM('',(#106),#107);
#33=STYLED_ITEM('',(#108),#109);
#34=STYLED_ITEM('',(#110),#111);
#35=STYLED_ITEM('',(#112),#113);
#36=STYLED_ITEM('',(#114),#115);
#37=STYLED_ITEM('',(#116),#117);
#38=STYLED_ITEM('',(#118),#119);
#39=STYLED_ITEM('',(#120),#121);
#40=STYLED_ITEM('',(#122),#123);
#41=STYLED_ITEM('',(#124),#125);
#42=STYLED_ITEM('',(#126),#127);
#43=STYLED_ITEM('',(#128),#129);
#44=STYLED_ITEM('',(#130),#131);
#45=STYLED_ITEM('',(#132),#133);
#46=STYLED_ITEM('',(#134),#135);
#47=STYLED_ITEM('',(#136),#137);
#48=STYLED_ITEM('',(#138),#139);
#49=APPLICATION_CONTEXT(' ');
#50=PRODUCT_CATEGORY('part','NONE');
#51=PRODUCT_RELATED_PRODUCT_CATEGORY('detail',' ',(#140));
#52=PRODUCT_DEFINITION_SHAPE('NONE','NONE',#141);
#53=ADVANCED_BREP_SHAPE_REPRESENTATION('1',(#115,#142),#6);
#56=UNCERTAINTY_MEASURE_WITH_UNIT(LENGTH_MEASURE(1.0E-006),#58,'','');
#58= (CONVERSION_BASED_UNIT('MILLIMETRE',#145)LENGTH_UNIT()NAMED_UNIT(#148));
#59= (NAMED_UNIT(#150)PLANE_ANGLE_UNIT()SI_UNIT($,.RADIAN.));
#60= (NAMED_UNIT(#150)SOLID_ANGLE_UNIT()SI_UNIT($,.STERADIAN.));
#62=PRESENTATION_STYLE_ASSIGNMENT((#156));
#63=ADVANCED_FACE('',(#157),#158,.T.);
#64=PRESENTATION_STYLE_ASSIGNMENT((#159));
#65=EDGE_CURVE('',#123,#119,#160,.T.);
#66=PRESENTATION_STYLE_ASSIGNMENT((#161));
#67=ADVANCED_FACE('',(#162),#163,.T.);
#68=PRESENTATION_STYLE_ASSIGNMENT((#164));
#69=ADVANCED_FACE('',(#165),#166,.F.);
#70=PRESENTATION_STYLE_ASSIGNMENT((#167));
#71=EDGE_CURVE('',#119,#139,#168,.T.);
#72=PRESENTATION_STYLE_ASSIGNMENT((#169));
#73=EDGE_CURVE('',#139,#83,#170,.T.);
#74=PRESENTATION_STYLE_ASSIGNMENT((#171));
#75=EDGE_CURVE('',#81,#79,#172,.T.);
#76=PRESENTATION_STYLE_ASSIGNMENT((#173));
#77=ADVANCED_FACE('',(#174),#175,.T.);
#78=PRESENTATION_STYLE_ASSIGNMENT((#176));
#79=VERTEX_POINT('',#177);
#80=PRESENTATION_STYLE_ASSIGNMENT((#178));
#81=VERTEX_POINT('',#179);
#82=PRESENTATION_STYLE_ASSIGNMENT((#180));
#83=VERTEX_POINT('',#181);
#84=PRESENTATION_STYLE_ASSIGNMENT((#182));
#85=EDGE_CURVE('',#79,#83,#183,.T.);
#86=PRESENTATION_STYLE_ASSIGNMENT((#184));
#87=EDGE_CURVE('',#127,#81,#185,.T.);
#88=PRESENTATION_STYLE_ASSIGNMENT((#186));
#89=VERTEX_POINT('',#187);
#90=PRESENTATION_STYLE_ASSIGNMENT((#188));
#91=EDGE_CURVE('',#139,#89,#189,.T.);
#92=PRESENTATION_STYLE_ASSIGNMENT((#190));
#93=EDGE_CURVE('',#129,#125,#191,.T.);
#94=PRESENTATION_STYLE_ASSIGNMENT((#192));
#95=VERTEX_POINT('',#193);
#96=PRESENTATION_STYLE_ASSIGNMENT((#194));
#97=EDGE_CURVE('',#123,#81,#195,.T.);
#98=PRESENTATION_STYLE_ASSIGNMENT((#196));
#99=EDGE_CURVE('',#89,#95,#197,.T.);
#100=PRESENTATION_STYLE_ASSIGNMENT((#198));
#101=ADVANCED_FACE('',(#199),#200,.T.);
#102=PRESENTATION_STYLE_ASSIGNMENT((#201));
#103=EDGE_CURVE('',#109,#123,#202,.T.);
#104=PRESENTATION_STYLE_ASSIGNMENT((#203));
#105=EDGE_CURVE('',#109,#127,#204,.T.);
#106=PRESENTATION_STYLE_ASSIGNMENT((#205));
#107=ADVANCED_FACE('',(#206),#207,.T.);
#108=PRESENTATION_STYLE_ASSIGNMENT((#208));
#109=VERTEX_POINT('',#209);
#110=PRESENTATION_STYLE_ASSIGNMENT((#210));
#111=EDGE_CURVE('',#125,#127,#211,.T.);
#112=PRESENTATION_STYLE_ASSIGNMENT((#212));
#113=ADVANCED_FACE('',(#213),#214,.T.);
#114=PRESENTATION_STYLE_ASSIGNMENT((#215));
#115=MANIFOLD_SOLID_BREP('1',#216);
#116=PRESENTATION_STYLE_ASSIGNMENT((#217));
#117=EDGE_CURVE('',#95,#125,#218,.T.);
#118=PRESENTATION_STYLE_ASSIGNMENT((#219));
#119=VERTEX_POINT('',#220);
#120=PRESENTATION_STYLE_ASSIGNMENT((#221));
#121=EDGE_CURVE('',#119,#79,#222,.T.);
#122=PRESENTATION_STYLE_ASSIGNMENT((#223));
#123=VERTEX_POINT('',#224);
#124=PRESENTATION_STYLE_ASSIGNMENT((#225));
#125=VERTEX_POINT('',#226);
#126=PRESENTATION_STYLE_ASSIGNMENT((#227));
#127=VERTEX_POINT('',#228);
#128=PRESENTATION_STYLE_ASSIGNMENT((#229));
#129=VERTEX_POINT('',#230);
#130=PRESENTATION_STYLE_ASSIGNMENT((#231));
#131=ADVANCED_FACE('',(#232),#233,.T.);
#132=PRESENTATION_STYLE_ASSIGNMENT((#234));
#133=EDGE_CURVE('',#83,#129,#235,.T.);
#134=PRESENTATION_STYLE_ASSIGNMENT((#236));
#135=EDGE_CURVE('',#89,#129,#237,.T.);
#136=PRESENTATION_STYLE_ASSIGNMENT((#238));
#137=EDGE_CURVE('',#95,#109,#239,.T.);
#138=PRESENTATION_STYLE_ASSIGNMENT((#240));
#139=VERTEX_POINT('',#241);
#140=PRODUCT('1','1','PART-1-DESC',(#242));
#141=PRODUCT_DEFINITION('NONE','NONE',#243,#2);
#142=AXIS2_PLACEMENT_3D('',#244,#245,#246);
#145=LENGTH_MEASURE_WITH_UNIT(LENGTH_MEASURE(1.0),#247);
#148=DIMENSIONAL_EXPONENTS(1.0,0.0,0.0,0.0,0.0,0.0,0.0);
#150=DIMENSIONAL_EXPONENTS(0.0,0.0,0.0,0.0,0.0,0.0,0.0);
#156=SURFACE_STYLE_USAGE(.BOTH.,#248);
#157=FACE_OUTER_BOUND('',#249,.T.);
#158=PLANE('',#250);
#159=CURVE_STYLE('',#251,POSITIVE_LENGTH_MEASURE(1.0E-006),#252);
#160=CIRCLE('',#253,1.2);
#161=SURFACE_STYLE_USAGE(.BOTH.,#254);
#162=FACE_OUTER_BOUND('',#255,.T.);
#163=CYLINDRICAL_SURFACE('',#256,1.2);
#164=SURFACE_STYLE_USAGE(.BOTH.,#257);
#165=FACE_OUTER_BOUND('',#258,.T.);
#166=PLANE('',#259);
#167=CURVE_STYLE('',#260,POSITIVE_LENGTH_MEASURE(1.0E-006),#261);
#168=LINE('',#262,#263);
#169=CURVE_STYLE('',#264,POSITIVE_LENGTH_MEASURE(1.0E-006),#265);
#170=LINE('',#266,#267);
#171=CURVE_STYLE('',#268,POSITIVE_LENGTH_MEASURE(1.0E-006),#269);
#172=CIRCLE('',#270,1.2);
#173=SURFACE_STYLE_USAGE(.BOTH.,#271);
#174=FACE_OUTER_BOUND('',#272,.T.);
#175=PLANE('',#273);
#176=POINT_STYLE(' ',#274,POSITIVE_LENGTH_MEASURE(1.0E-006),#275);
#177=CARTESIAN_POINT('',(8.31384387641722,14.39999999995,-6.55));
#178=POINT_STYLE(' ',#276,POSITIVE_LENGTH_MEASURE(1.0E-006),#277);
#179=CARTESIAN_POINT('',(10.3923048454133,14.4,-6.55));
#180=POINT_STYLE(' ',#278,POSITIVE_LENGTH_MEASURE(1.0E-006),#279);
#181=CARTESIAN_POINT('',(1.03923048454133,1.8,-6.55));
#182=CURVE_STYLE('',#280,POSITIVE_LENGTH_MEASURE(1.0E-006),#281);
#183=LINE('',#282,#283);
#184=CURVE_STYLE('',#284,POSITIVE_LENGTH_MEASURE(1.0E-006),#285);
#185=LINE('',#286,#287);
#186=POINT_STYLE(' ',#288,POSITIVE_LENGTH_MEASURE(1.0E-006),#289);
#187=CARTESIAN_POINT('',(2.07846096908265,0.0,0.0));
#188=CURVE_STYLE('',#290,POSITIVE_LENGTH_MEASURE(1.0E-006),#291);
#189=CIRCLE('',#292,1.2);
#190=CURVE_STYLE('',#293,POSITIVE_LENGTH_MEASURE(1.0E-006),#294);
#191=LINE('',#295,#296);
#192=POINT_STYLE(' ',#297,POSITIVE_LENGTH_MEASURE(1.0E-006),#298);
#193=CARTESIAN_POINT('',(16.6276877526612,0.0,0.0));
#194=CURVE_STYLE('',#299,POSITIVE_LENGTH_MEASURE(1.0E-006),#300);
#195=LINE('',#301,#302);
#196=CURVE_STYLE('',#303,POSITIVE_LENGTH_MEASURE(1.0E-006),#304);
#197=LINE('',#305,#306);
#198=SURFACE_STYLE_USAGE(.BOTH.,#307);
#199=FACE_OUTER_BOUND('',#308,.T.);
#200=PLANE('',#309);
#201=CURVE_STYLE('',#310,POSITIVE_LENGTH_MEASURE(1.0E-006),#311);
#202=LINE('',#312,#313);
#203=CURVE_STYLE('',#314,POSITIVE_LENGTH_MEASURE(1.0E-006),#315);
#204=LINE('',#316,#317);
#205=SURFACE_STYLE_USAGE(.BOTH.,#318);
#206=FACE_OUTER_BOUND('',#319,.T.);
#207=CYLINDRICAL_SURFACE('',#320,1.2);
#208=POINT_STYLE(' ',#321,POSITIVE_LENGTH_MEASURE(1.0E-006),#322);
#209=CARTESIAN_POINT('',(17.666918237116,1.79999999995,0.0));
#210=CURVE_STYLE('',#323,POSITIVE_LENGTH_MEASURE(1.0E-006),#324);
#211=CIRCLE('',#325,1.2);
#212=SURFACE_STYLE_USAGE(.BOTH.,#326);
#213=FACE_OUTER_BOUND('',#327,.T.);
#214=PLANE('',#328);
#215=SURFACE_STYLE_USAGE(.BOTH.,#329);
#216=CLOSED_SHELL('',(#131,#77,#67,#63,#107,#113,#69,#101));
#217=CURVE_STYLE('',#330,POSITIVE_LENGTH_MEASURE(1.0E-006),#331);
#218=LINE('',#332,#333);
#219=POINT_STYLE(' ',#334,POSITIVE_LENGTH_MEASURE(1.0E-006),#335);
#220=CARTESIAN_POINT('',(8.31384387641722,14.39999999995,0.0));
#221=CURVE_STYLE('',#336,POSITIVE_LENGTH_MEASURE(1.0E-006),#337);
#222=LINE('',#338,#339);
#223=POINT_STYLE(' ',#340,POSITIVE_LENGTH_MEASURE(1.0E-006),#341);
#224=CARTESIAN_POINT('',(10.3923048454133,14.4,0.0));
#225=POINT_STYLE(' ',#342,POSITIVE_LENGTH_MEASURE(1.0E-006),#343);
#226=CARTESIAN_POINT('',(16.6276877526612,0.0,-6.55));
#227=POINT_STYLE(' ',#344,POSITIVE_LENGTH_MEASURE(1.0E-006),#345);
#228=CARTESIAN_POINT('',(17.666918237116,1.79999999995,-6.55));
#229=POINT_STYLE(' ',#346,POSITIVE_LENGTH_MEASURE(1.0E-006),#347);
#230=CARTESIAN_POINT('',(2.07846096908265,0.0,-6.55));
#231=SURFACE_STYLE_USAGE(.BOTH.,#348);
#232=FACE_OUTER_BOUND('',#349,.T.);
#233=CYLINDRICAL_SURFACE('',#350,1.2);
#234=CURVE_STYLE('',#351,POSITIVE_LENGTH_MEASURE(1.0E-006),#352);
#235=CIRCLE('',#353,1.2);
#236=CURVE_STYLE('',#354,POSITIVE_LENGTH_MEASURE(1.0E-006),#355);
#237=LINE('',#356,#357);
#238=CURVE_STYLE('',#358,POSITIVE_LENGTH_MEASURE(1.0E-006),#359);
#239=CIRCLE('',#360,1.2);
#240=POINT_STYLE(' ',#361,POSITIVE_LENGTH_MEASURE(1.0E-006),#362);
#241=CARTESIAN_POINT('',(1.03923048454133,1.8,0.0));
#242=PRODUCT_CONTEXT('',#49,'mechanical');
#243=PRODUCT_DEFINITION_FORMATION_WITH_SPECIFIED_SOURCE(' ','NONE',#140,.NOT_KNOWN.);
#244=CARTESIAN_POINT('',(0.0,0.0,0.0));
#245=DIRECTION('',(0.0,0.0,1.0));
#246=DIRECTION('',(1.0,0.0,0.0));
#247= (NAMED_UNIT(#148)LENGTH_UNIT()SI_UNIT(.MILLI.,.METRE.));
#248=SURFACE_SIDE_STYLE('',(#364));
#249=EDGE_LOOP('',(#365,#366,#367,#368));
#250=AXIS2_PLACEMENT_3D('',#369,#370,#371);
#251=DRAUGHTING_PRE_DEFINED_CURVE_FONT('continuous');
#252=COLOUR_RGB('',0.800000011920929,0.800000011920929,0.800000011920929);
#253=AXIS2_PLACEMENT_3D('',#372,#373,#374);
#254=SURFACE_SIDE_STYLE('',(#375));
#255=EDGE_LOOP('',(#376,#377,#378,#379));
#256=AXIS2_PLACEMENT_3D('',#380,#381,#382);
#257=SURFACE_SIDE_STYLE('',(#383));
#258=EDGE_LOOP('',(#384,#385,#386,#387,#388,#389));
#259=AXIS2_PLACEMENT_3D('',#390,#391,#392);
#260=DRAUGHTING_PRE_DEFINED_CURVE_FONT('continuous');
#261=COLOUR_RGB('',0.800000011920929,0.800000011920929,0.800000011920929);
#262=CARTESIAN_POINT('',(8.31384387633061,14.4,0.0));
#263=VECTOR('',#393,1.0);
#264=DRAUGHTING_PRE_DEFINED_CURVE_FONT('continuous');
#265=COLOUR_RGB('',0.800000011920929,0.800000011920929,0.800000011920929);
#266=CARTESIAN_POINT('',(1.03923048454133,1.8,0.0));
#267=VECTOR('',#394,1.0);
#268=DRAUGHTING_PRE_DEFINED_CURVE_FONT('continuous');
#269=COLOUR_RGB('',0.800000011920929,0.800000011920929,0.800000011920929);
#270=AXIS2_PLACEMENT_3D('',#395,#396,#397);
#271=SURFACE_SIDE_STYLE('',(#398));
#272=EDGE_LOOP('',(#399,#400,#401,#402));
#273=AXIS2_PLACEMENT_3D('',#403,#404,#405);
#274=PRE_DEFINED_MARKER('');
#275=COLOUR_RGB('',0.800000011920929,0.800000011920929,0.800000011920929);
#276=PRE_DEFINED_MARKER('');
#277=COLOUR_RGB('',0.800000011920929,0.800000011920929,0.800000011920929);
#278=PRE_DEFINED_MARKER('');
#279=COLOUR_RGB('',0.800000011920929,0.800000011920929,0.800000011920929);
#280=DRAUGHTING_PRE_DEFINED_CURVE_FONT('continuous');
#281=COLOUR_RGB('',0.800000011920929,0.800000011920929,0.800000011920929);
#282=CARTESIAN_POINT('',(8.31384387633061,14.4,-6.55));
#283=VECTOR('',#406,1.0);
#284=DRAUGHTING_PRE_DEFINED_CURVE_FONT('continuous');
#285=COLOUR_RGB('',0.800000011920929,0.800000011920929,0.800000011920929);
#286=CARTESIAN_POINT('',(17.6669182372026,1.8,-6.55));
#287=VECTOR('',#407,1.0);
#288=PRE_DEFINED_MARKER('');
#289=COLOUR_RGB('',0.800000011920929,0.800000011920929,0.800000011920929);
#290=DRAUGHTING_PRE_DEFINED_CURVE_FONT('continuous');
#291=COLOUR_RGB('',0.800000011920929,0.800000011920929,0.800000011920929);
#292=AXIS2_PLACEMENT_3D('',#408,#409,#410);
#293=DRAUGHTING_PRE_DEFINED_CURVE_FONT('continuous');
#294=COLOUR_RGB('',0.800000011920929,0.800000011920929,0.800000011920929);
#295=CARTESIAN_POINT('',(2.07846096908265,0.0,-6.55));
#296=VECTOR('',#411,1.0);
#297=PRE_DEFINED_MARKER('');
#298=COLOUR_RGB('',0.800000011920929,0.800000011920929,0.800000011920929);
#299=DRAUGHTING_PRE_DEFINED_CURVE_FONT('continuous');
#300=COLOUR_RGB('',0.800000011920929,0.800000011920929,0.800000011920929);
#301=CARTESIAN_POINT('',(10.3923048454133,14.4,0.0));
#302=VECTOR('',#412,1.0);
#303=DRAUGHTING_PRE_DEFINED_CURVE_FONT('continuous');
#304=COLOUR_RGB('',0.800000011920929,0.800000011920929,0.800000011920929);
#305=CARTESIAN_POINT('',(2.07846096908265,0.0,0.0));
#306=VECTOR('',#413,1.0);
#307=SURFACE_SIDE_STYLE('',(#414));
#308=EDGE_LOOP('',(#415,#416,#417,#418,#419,#420));
#309=AXIS2_PLACEMENT_3D('',#421,#422,#423);
#310=DRAUGHTING_PRE_DEFINED_CURVE_FONT('continuous');
#311=COLOUR_RGB('',0.800000011920929,0.800000011920929,0.800000011920929);
#312=CARTESIAN_POINT('',(17.6669182372026,1.8,0.0));
#313=VECTOR('',#424,1.0);
#314=DRAUGHTING_PRE_DEFINED_CURVE_FONT('continuous');
#315=COLOUR_RGB('',0.800000011920929,0.800000011920929,0.800000011920929);
#316=CARTESIAN_POINT('',(17.666918237116,1.79999999995,0.0));
#317=VECTOR('',#425,1.0);
#318=SURFACE_SIDE_STYLE('',(#426));
#319=EDGE_LOOP('',(#427,#428,#429,#430));
#320=AXIS2_PLACEMENT_3D('',#431,#432,#433);
#321=PRE_DEFINED_MARKER('');
#322=COLOUR_RGB('',0.800000011920929,0.800000011920929,0.800000011920929);
#323=DRAUGHTING_PRE_DEFINED_CURVE_FONT('continuous');
#324=COLOUR_RGB('',0.800000011920929,0.800000011920929,0.800000011920929);
#325=AXIS2_PLACEMENT_3D('',#434,#435,#436);
#326=SURFACE_SIDE_STYLE('',(#437));
#327=EDGE_LOOP('',(#438,#439,#440,#441));
#328=AXIS2_PLACEMENT_3D('',#442,#443,#444);
#329=SURFACE_SIDE_STYLE('',(#445));
#330=DRAUGHTING_PRE_DEFINED_CURVE_FONT('continuous');
#331=COLOUR_RGB('',0.800000011920929,0.800000011920929,0.800000011920929);
#332=CARTESIAN_POINT('',(16.6276877526612,0.0,0.0));
#333=VECTOR('',#446,1.0);
#334=PRE_DEFINED_MARKER('');
#335=COLOUR_RGB('',0.800000011920929,0.800000011920929,0.800000011920929);
#336=DRAUGHTING_PRE_DEFINED_CURVE_FONT('continuous');
#337=COLOUR_RGB('',0.800000011920929,0.800000011920929,0.800000011920929);
#338=CARTESIAN_POINT('',(8.31384387641722,14.39999999995,0.0));
#339=VECTOR('',#447,1.0);
#340=PRE_DEFINED_MARKER('');
#341=COLOUR_RGB('',0.800000011920929,0.800000011920929,0.800000011920929);
#342=PRE_DEFINED_MARKER('');
#343=COLOUR_RGB('',0.800000011920929,0.800000011920929,0.800000011920929);
#344=PRE_DEFINED_MARKER('');
#345=COLOUR_RGB('',0.800000011920929,0.800000011920929,0.800000011920929);
#346=PRE_DEFINED_MARKER('');
#347=COLOUR_RGB('',0.800000011920929,0.800000011920929,0.800000011920929);
#348=SURFACE_SIDE_STYLE('',(#448));
#349=EDGE_LOOP('',(#449,#450,#451,#452));
#350=AXIS2_PLACEMENT_3D('',#453,#454,#455);
#351=DRAUGHTING_PRE_DEFINED_CURVE_FONT('continuous');
#352=COLOUR_RGB('',0.800000011920929,0.800000011920929,0.800000011920929);
#353=AXIS2_PLACEMENT_3D('',#456,#457,#458);
#354=DRAUGHTING_PRE_DEFINED_CURVE_FONT('continuous');
#355=COLOUR_RGB('',0.800000011920929,0.800000011920929,0.800000011920929);
#356=CARTESIAN_POINT('',(2.07846096908265,0.0,0.0));
#357=VECTOR('',#459,1.0);
#358=DRAUGHTING_PRE_DEFINED_CURVE_FONT('continuous');
#359=COLOUR_RGB('',0.800000011920929,0.800000011920929,0.800000011920929);
#360=AXIS2_PLACEMENT_3D('',#460,#461,#462);
#361=PRE_DEFINED_MARKER('');
#362=COLOUR_RGB('',0.800000011920929,0.800000011920929,0.800000011920929);
#364=SURFACE_STYLE_FILL_AREA(#463);
#365=ORIENTED_EDGE('',*,*,#85,.T.);
#366=ORIENTED_EDGE('',*,*,#73,.F.);
#367=ORIENTED_EDGE('',*,*,#71,.F.);
#368=ORIENTED_EDGE('',*,*,#121,.T.);
#369=CARTESIAN_POINT('',(8.31384387641722,14.39999999995,0.0));
#370=DIRECTION('',(-0.866025403784439,0.5,0.0));
#371=DIRECTION('',(0.5,0.866025403784439,-0.0));
#372=CARTESIAN_POINT('',(9.35307436087194,13.7999999998,0.0));
#373=DIRECTION('',(0.0,-0.0,1.0));
#374=DIRECTION('',(0.866025403712269,0.500000000125002,0.0));
#375=SURFACE_STYLE_FILL_AREA(#464);
#376=ORIENTED_EDGE('',*,*,#75,.T.);
#377=ORIENTED_EDGE('',*,*,#121,.F.);
#378=ORIENTED_EDGE('',*,*,#65,.F.);
#379=ORIENTED_EDGE('',*,*,#97,.T.);
#380=CARTESIAN_POINT('',(9.35307436087194,13.7999999998,0.0));
#381=DIRECTION('',(-0.0,-0.0,1.0));
#382=DIRECTION('',(0.866025403712269,0.500000000125002,0.0));
#383=SURFACE_STYLE_FILL_AREA(#465);
#384=ORIENTED_EDGE('',*,*,#111,.F.);
#385=ORIENTED_EDGE('',*,*,#93,.F.);
#386=ORIENTED_EDGE('',*,*,#133,.F.);
#387=ORIENTED_EDGE('',*,*,#85,.F.);
#388=ORIENTED_EDGE('',*,*,#75,.F.);
#389=ORIENTED_EDGE('',*,*,#87,.F.);
#390=CARTESIAN_POINT('',(9.35307436087194,5.4,-6.55));
#391=DIRECTION('',(0.0,0.0,1.0));
#392=DIRECTION('',(1.0,0.0,0.0));
#393=DIRECTION('',(-0.5,-0.866025403784439,0.0));
#394=DIRECTION('',(0.0,0.0,-1.0));
#395=CARTESIAN_POINT('',(9.35307436087194,13.7999999998,-6.55));
#396=DIRECTION('',(0.0,-0.0,1.0));
#397=DIRECTION('',(0.866025403712269,0.500000000125002,0.0));
#398=SURFACE_STYLE_FILL_AREA(#466);
#399=ORIENTED_EDGE('',*,*,#87,.T.);
#400=ORIENTED_EDGE('',*,*,#97,.F.);
#401=ORIENTED_EDGE('',*,*,#103,.F.);
#402=ORIENTED_EDGE('',*,*,#105,.T.);
#403=CARTESIAN_POINT('',(17.666918237116,1.79999999995,0.0));
#404=DIRECTION('',(0.866025403784439,0.5,0.0));
#405=DIRECTION('',(0.5,-0.866025403784439,-0.0));
#406=DIRECTION('',(-0.5,-0.866025403784439,0.0));
#407=DIRECTION('',(-0.5,0.866025403784439,0.0));
#408=CARTESIAN_POINT('',(2.07846096925586,1.2000000001,0.0));
#409=DIRECTION('',(0.0,0.0,1.0));
#410=DIRECTION('',(-0.866025403856607,0.499999999875,0.0));
#411=DIRECTION('',(1.0,0.0,0.0));
#412=DIRECTION('',(0.0,0.0,-1.0));
#413=DIRECTION('',(1.0,0.0,0.0));
#414=SURFACE_STYLE_FILL_AREA(#467);
#415=ORIENTED_EDGE('',*,*,#99,.T.);
#416=ORIENTED_EDGE('',*,*,#137,.T.);
#417=ORIENTED_EDGE('',*,*,#103,.T.);
#418=ORIENTED_EDGE('',*,*,#65,.T.);
#419=ORIENTED_EDGE('',*,*,#71,.T.);
#420=ORIENTED_EDGE('',*,*,#91,.T.);
#421=CARTESIAN_POINT('',(9.35307436087194,5.4,0.0));
#422=DIRECTION('',(0.0,0.0,1.0));
#423=DIRECTION('',(1.0,0.0,0.0));
#424=DIRECTION('',(-0.5,0.866025403784439,0.0));
#425=DIRECTION('',(0.0,0.0,-1.0));
#426=SURFACE_STYLE_FILL_AREA(#468);
#427=ORIENTED_EDGE('',*,*,#133,.T.);
#428=ORIENTED_EDGE('',*,*,#135,.F.);
#429=ORIENTED_EDGE('',*,*,#91,.F.);
#430=ORIENTED_EDGE('',*,*,#73,.T.);
#431=CARTESIAN_POINT('',(2.07846096925586,1.2000000001,0.0));
#432=DIRECTION('',(-0.0,-0.0,1.0));
#433=DIRECTION('',(-0.866025403856607,0.499999999875,0.0));
#434=CARTESIAN_POINT('',(16.627687752488,1.2000000001,-6.55));
#435=DIRECTION('',(0.0,0.0,1.0));
#436=DIRECTION('',(1.44337874985467E-010,-1.0,0.0));
#437=SURFACE_STYLE_FILL_AREA(#469);
#438=ORIENTED_EDGE('',*,*,#93,.T.);
#439=ORIENTED_EDGE('',*,*,#117,.F.);
#440=ORIENTED_EDGE('',*,*,#99,.F.);
#441=ORIENTED_EDGE('',*,*,#135,.T.);
#442=CARTESIAN_POINT('',(2.07846096908265,0.0,0.0));
#443=DIRECTION('',(0.0,-1.0,-0.0));
#444=DIRECTION('',(-1.0,0.0,-0.0));
#445=SURFACE_STYLE_FILL_AREA(#470);
#446=DIRECTION('',(0.0,0.0,-1.0));
#447=DIRECTION('',(0.0,0.0,-1.0));
#448=SURFACE_STYLE_FILL_AREA(#471);
#449=ORIENTED_EDGE('',*,*,#111,.T.);
#450=ORIENTED_EDGE('',*,*,#105,.F.);
#451=ORIENTED_EDGE('',*,*,#137,.F.);
#452=ORIENTED_EDGE('',*,*,#117,.T.);
#453=CARTESIAN_POINT('',(16.627687752488,1.2000000001,0.0));
#454=DIRECTION('',(-0.0,-0.0,1.0));
#455=DIRECTION('',(1.44337874985467E-010,-1.0,0.0));
#456=CARTESIAN_POINT('',(2.07846096925586,1.2000000001,-6.55));
#457=DIRECTION('',(0.0,0.0,1.0));
#458=DIRECTION('',(-0.866025403856607,0.499999999875,0.0));
#459=DIRECTION('',(0.0,0.0,-1.0));
#460=CARTESIAN_POINT('',(16.627687752488,1.2000000001,0.0));
#461=DIRECTION('',(0.0,0.0,1.0));
#462=DIRECTION('',(1.44337874985467E-010,-1.0,0.0));
#463=FILL_AREA_STYLE('',(#472));
#464=FILL_AREA_STYLE('',(#473));
#465=FILL_AREA_STYLE('',(#474));
#466=FILL_AREA_STYLE('',(#475));
#467=FILL_AREA_STYLE('',(#476));
#468=FILL_AREA_STYLE('',(#477));
#469=FILL_AREA_STYLE('',(#478));
#470=FILL_AREA_STYLE('',(#479));
#471=FILL_AREA_STYLE('',(#480));
#472=FILL_AREA_STYLE_COLOUR('',#481);
#473=FILL_AREA_STYLE_COLOUR('',#482);
#474=FILL_AREA_STYLE_COLOUR('',#483);
#475=FILL_AREA_STYLE_COLOUR('',#484);
#476=FILL_AREA_STYLE_COLOUR('',#485);
#477=FILL_AREA_STYLE_COLOUR('',#486);
#478=FILL_AREA_STYLE_COLOUR('',#487);
#479=FILL_AREA_STYLE_COLOUR('',#488);
#480=FILL_AREA_STYLE_COLOUR('',#489);
#481=COLOUR_RGB('',0.800000011920929,0.800000011920929,0.800000011920929);
#482=COLOUR_RGB('',0.800000011920929,0.800000011920929,0.800000011920929);
#483=COLOUR_RGB('',0.800000011920929,0.800000011920929,0.800000011920929);
#484=COLOUR_RGB('',0.800000011920929,0.800000011920929,0.800000011920929);
#485=COLOUR_RGB('',0.800000011920929,0.800000011920929,0.800000011920929);
#486=COLOUR_RGB('',0.800000011920929,0.800000011920929,0.800000011920929);
#487=COLOUR_RGB('',0.800000011920929,0.800000011920929,0.800000011920929);
#488=COLOUR_RGB('',0.800000011920929,0.800000011920929,0.800000011920929);
#489=COLOUR_RGB('',0.800000011920929,0.800000011920929,0.800000011920929);
#490=AXIS2_PLACEMENT_3D('PCS',#491,#492,#493);
#491=CARTESIAN_POINT('',(0.0,0.0,0.0));
#492=DIRECTION('',(0.0,0.0,1.0));
#493=DIRECTION('',(1.0,0.0,0.0));
#494=AXIS2_PLACEMENT_3D('MCS',#495,#496,#497);
#495=CARTESIAN_POINT('',(9.35307436,5.4,0.0));
#496=DIRECTION('',(0.0,0.0,1.0));
#497=DIRECTION('',(1.0,0.0,0.0));
#498=CONSTRUCTIVE_GEOMETRY_REPRESENTATION_RELATIONSHIP('coordinate systems',$,#53,#499);
#499=CONSTRUCTIVE_GEOMETRY_REPRESENTATION('coordinate systems',(#490,#494),#6);
ENDSEC;
END-ISO-10303-21;
