ISO-10303-21;
HEADER;
FILE_DESCRIPTION(('no description'),'unknown implementation level');
FILE_NAME('solidHEY_QZmsLt8HfywVs2ZsScn1Z80_1.STP','  ',('CIMSOURCE GmbH'),('CADClick - KiM GmbH - www.kimweb.de'),'unknown preprocess','ACIS','unknown authorization');
FILE_SCHEMA(('automotive_design'));
ENDSEC;
DATA;
#1=MECHANICAL_DESIGN_GEOMETRIC_PRESENTATION_REPRESENTATION(' ',(#10,#11,#12,#13,#14,#15,#16,#17,#18,#19,#20,#21,#22,#23,#24,#25,#26,#27,#28,#29,#30,#31,#32,#33,#34,#35,#36,#37,#38,#39,#40,#41,#42,#43,#44,#45,#46,#47,#48),#6);
#2=PRODUCT_DEFINITION_CONTEXT('',#49,'design');
#3=APPLICATION_PROTOCOL_DEFINITION('INTERNATIONAL STANDARD','automotive_design',1994,#49);
#4=PRODUCT_CATEGORY_RELATIONSHIP('NONE','NONE',#50,#51);
#5=SHAPE_DEFINITION_REPRESENTATION(#52,#53);
#6= (GEOMETRIC_REPRESENTATION_CONTEXT(3)GLOBAL_UNCERTAINTY_ASSIGNED_CONTEXT((#56))GLOBAL_UNIT_ASSIGNED_CONTEXT((#58,#59,#60))REPRESENTATION_CONTEXT('NONE','WORKSPACE'));
#10=STYLED_ITEM('',(#62),#63);
#11=STYLED_ITEM('',(#64),#65);
#12=STYLED_ITEM('',(#66),#67);
#13=STYLED_ITEM('',(#68),#69);
#14=STYLED_ITEM('',(#70),#71);
#15=STYLED_ITEM('',(#72),#73);
#16=STYLED_ITEM('',(#74),#75);
#17=STYLED_ITEM('',(#76),#77);
#18=STYLED_ITEM('',(#78),#79);
#19=STYLED_ITEM('',(#80),#81);
#20=STYLED_ITEM('',(#82),#83);
#21=STYLED_ITEM('',(#84),#85);
#22=STYLED_ITEM('',(#86),#87);
#23=STYLED_ITEM('',(#88),#89);
#24=STYLED_ITEM('',(#90),#91);
#25=STYLED_ITEM('',(#92),#93);
#26=STYLED_ITEM('',(#94),#95);
#27=STYLED_ITEM('',(#96),#97);
#28=STYLED_ITEM('',(#98),#99);
#29=STYLED_ITEM('',(#100),#101);
#30=STYLED_ITEM('',(#102),#103);
#31=STYLED_ITEM('',(#104),#105);
#32=STYLED_ITEM('',(#106),#107);
#33=STYLED_ITEM('',(#108),#109);
#34=STYLED_ITEM('',(#110),#111);
#35=STYLED_ITEM('',(#112),#113);
#36=STYLED_ITEM('',(#114),#115);
#37=STYLED_ITEM('',(#116),#117);
#38=STYLED_ITEM('',(#118),#119);
#39=STYLED_ITEM('',(#120),#121);
#40=STYLED_ITEM('',(#122),#123);
#41=STYLED_ITEM('',(#124),#125);
#42=STYLED_ITEM('',(#126),#127);
#43=STYLED_ITEM('',(#128),#129);
#44=STYLED_ITEM('',(#130),#131);
#45=STYLED_ITEM('',(#132),#133);
#46=STYLED_ITEM('',(#134),#135);
#47=STYLED_ITEM('',(#136),#137);
#48=STYLED_ITEM('',(#138),#139);
#49=APPLICATION_CONTEXT(' ');
#50=PRODUCT_CATEGORY('part','NONE');
#51=PRODUCT_RELATED_PRODUCT_CATEGORY('detail',' ',(#140));
#52=PRODUCT_DEFINITION_SHAPE('NONE','NONE',#141);
#53=ADVANCED_BREP_SHAPE_REPRESENTATION('1',(#131,#142),#6);
#56=UNCERTAINTY_MEASURE_WITH_UNIT(LENGTH_MEASURE(1.0E-006),#58,'','');
#58= (CONVERSION_BASED_UNIT('MILLIMETRE',#145)LENGTH_UNIT()NAMED_UNIT(#148));
#59= (NAMED_UNIT(#150)PLANE_ANGLE_UNIT()SI_UNIT($,.RADIAN.));
#60= (NAMED_UNIT(#150)SOLID_ANGLE_UNIT()SI_UNIT($,.STERADIAN.));
#62=PRESENTATION_STYLE_ASSIGNMENT((#156));
#63=ADVANCED_FACE('',(#157),#158,.T.);
#64=PRESENTATION_STYLE_ASSIGNMENT((#159));
#65=EDGE_CURVE('',#137,#127,#160,.T.);
#66=PRESENTATION_STYLE_ASSIGNMENT((#161));
#67=EDGE_CURVE('',#95,#109,#162,.T.);
#68=PRESENTATION_STYLE_ASSIGNMENT((#163));
#69=EDGE_CURVE('',#125,#115,#164,.T.);
#70=PRESENTATION_STYLE_ASSIGNMENT((#165));
#71=EDGE_CURVE('',#137,#73,#166,.T.);
#72=PRESENTATION_STYLE_ASSIGNMENT((#167));
#73=VERTEX_POINT('',#168);
#74=PRESENTATION_STYLE_ASSIGNMENT((#169));
#75=VERTEX_POINT('',#170);
#76=PRESENTATION_STYLE_ASSIGNMENT((#171));
#77=EDGE_CURVE('',#119,#95,#172,.T.);
#78=PRESENTATION_STYLE_ASSIGNMENT((#173));
#79=EDGE_CURVE('',#127,#101,#174,.T.);
#80=PRESENTATION_STYLE_ASSIGNMENT((#175));
#81=EDGE_CURVE('',#101,#115,#176,.T.);
#82=PRESENTATION_STYLE_ASSIGNMENT((#177));
#83=EDGE_CURVE('',#119,#139,#178,.T.);
#84=PRESENTATION_STYLE_ASSIGNMENT((#179));
#85=ADVANCED_FACE('',(#180),#181,.T.);
#86=PRESENTATION_STYLE_ASSIGNMENT((#182));
#87=ADVANCED_FACE('',(#183),#184,.T.);
#88=PRESENTATION_STYLE_ASSIGNMENT((#185));
#89=EDGE_CURVE('',#75,#133,#186,.T.);
#90=PRESENTATION_STYLE_ASSIGNMENT((#187));
#91=EDGE_CURVE('',#139,#109,#188,.T.);
#92=PRESENTATION_STYLE_ASSIGNMENT((#189));
#93=EDGE_CURVE('',#125,#119,#190,.T.);
#94=PRESENTATION_STYLE_ASSIGNMENT((#191));
#95=VERTEX_POINT('',#192);
#96=PRESENTATION_STYLE_ASSIGNMENT((#193));
#97=ADVANCED_FACE('',(#194),#195,.T.);
#98=PRESENTATION_STYLE_ASSIGNMENT((#196));
#99=EDGE_CURVE('',#115,#139,#197,.T.);
#100=PRESENTATION_STYLE_ASSIGNMENT((#198));
#101=VERTEX_POINT('',#199);
#102=PRESENTATION_STYLE_ASSIGNMENT((#200));
#103=ADVANCED_FACE('',(#201),#202,.T.);
#104=PRESENTATION_STYLE_ASSIGNMENT((#203));
#105=ADVANCED_FACE('',(#204),#205,.T.);
#106=PRESENTATION_STYLE_ASSIGNMENT((#206));
#107=ADVANCED_FACE('',(#207),#208,.T.);
#108=PRESENTATION_STYLE_ASSIGNMENT((#209));
#109=VERTEX_POINT('',#210);
#110=PRESENTATION_STYLE_ASSIGNMENT((#211));
#111=EDGE_CURVE('',#73,#101,#212,.T.);
#112=PRESENTATION_STYLE_ASSIGNMENT((#213));
#113=EDGE_CURVE('',#133,#73,#214,.T.);
#114=PRESENTATION_STYLE_ASSIGNMENT((#215));
#115=VERTEX_POINT('',#216);
#116=PRESENTATION_STYLE_ASSIGNMENT((#217));
#117=EDGE_CURVE('',#95,#75,#218,.T.);
#118=PRESENTATION_STYLE_ASSIGNMENT((#219));
#119=VERTEX_POINT('',#220);
#120=PRESENTATION_STYLE_ASSIGNMENT((#221));
#121=EDGE_CURVE('',#109,#133,#222,.T.);
#122=PRESENTATION_STYLE_ASSIGNMENT((#223));
#123=EDGE_CURVE('',#75,#137,#224,.T.);
#124=PRESENTATION_STYLE_ASSIGNMENT((#225));
#125=VERTEX_POINT('',#226);
#126=PRESENTATION_STYLE_ASSIGNMENT((#227));
#127=VERTEX_POINT('',#228);
#128=PRESENTATION_STYLE_ASSIGNMENT((#229));
#129=ADVANCED_FACE('',(#230),#231,.F.);
#130=PRESENTATION_STYLE_ASSIGNMENT((#232));
#131=MANIFOLD_SOLID_BREP('1',#233);
#132=PRESENTATION_STYLE_ASSIGNMENT((#234));
#133=VERTEX_POINT('',#235);
#134=PRESENTATION_STYLE_ASSIGNMENT((#236));
#135=EDGE_CURVE('',#127,#125,#237,.T.);
#136=PRESENTATION_STYLE_ASSIGNMENT((#238));
#137=VERTEX_POINT('',#239);
#138=PRESENTATION_STYLE_ASSIGNMENT((#240));
#139=VERTEX_POINT('',#241);
#140=PRODUCT('1','1','PART-1-DESC',(#242));
#141=PRODUCT_DEFINITION('NONE','NONE',#243,#2);
#142=AXIS2_PLACEMENT_3D('',#244,#245,#246);
#145=LENGTH_MEASURE_WITH_UNIT(LENGTH_MEASURE(1.0),#247);
#148=DIMENSIONAL_EXPONENTS(1.0,0.0,0.0,0.0,0.0,0.0,0.0);
#150=DIMENSIONAL_EXPONENTS(0.0,0.0,0.0,0.0,0.0,0.0,0.0);
#156=SURFACE_STYLE_USAGE(.BOTH.,#248);
#157=FACE_OUTER_BOUND('',#249,.T.);
#158=PLANE('',#250);
#159=CURVE_STYLE('',#251,POSITIVE_LENGTH_MEASURE(1.0E-006),#252);
#160=LINE('',#253,#254);
#161=CURVE_STYLE('',#255,POSITIVE_LENGTH_MEASURE(1.0E-006),#256);
#162=LINE('',#257,#258);
#163=CURVE_STYLE('',#259,POSITIVE_LENGTH_MEASURE(1.0E-006),#260);
#164=LINE('',#261,#262);
#165=CURVE_STYLE('',#263,POSITIVE_LENGTH_MEASURE(1.0E-006),#264);
#166=LINE('',#265,#266);
#167=POINT_STYLE(' ',#267,POSITIVE_LENGTH_MEASURE(1.0E-006),#268);
#168=CARTESIAN_POINT('',(7.62102355338966,13.19999999995,-6.55));
#169=POINT_STYLE(' ',#269,POSITIVE_LENGTH_MEASURE(1.0E-006),#270);
#170=CARTESIAN_POINT('',(11.0851251684408,13.2,0.0));
#171=CURVE_STYLE('',#271,POSITIVE_LENGTH_MEASURE(1.0E-006),#272);
#172=CIRCLE('',#273,2.0);
#173=CURVE_STYLE('',#274,POSITIVE_LENGTH_MEASURE(1.0E-006),#275);
#174=LINE('',#276,#277);
#175=CURVE_STYLE('',#278,POSITIVE_LENGTH_MEASURE(1.0E-006),#279);
#176=CIRCLE('',#280,2.0);
#177=CURVE_STYLE('',#281,POSITIVE_LENGTH_MEASURE(1.0E-006),#282);
#178=LINE('',#283,#284);
#179=SURFACE_STYLE_USAGE(.BOTH.,#285);
#180=FACE_OUTER_BOUND('',#286,.T.);
#181=PLANE('',#287);
#182=SURFACE_STYLE_USAGE(.BOTH.,#288);
#183=FACE_OUTER_BOUND('',#289,.T.);
#184=CYLINDRICAL_SURFACE('',#290,2.0);
#185=CURVE_STYLE('',#291,POSITIVE_LENGTH_MEASURE(1.0E-006),#292);
#186=LINE('',#293,#294);
#187=CURVE_STYLE('',#295,POSITIVE_LENGTH_MEASURE(1.0E-006),#296);
#188=CIRCLE('',#297,2.0);
#189=CURVE_STYLE('',#298,POSITIVE_LENGTH_MEASURE(1.0E-006),#299);
#190=LINE('',#300,#301);
#191=POINT_STYLE(' ',#302,POSITIVE_LENGTH_MEASURE(1.0E-006),#303);
#192=CARTESIAN_POINT('',(16.9740979140884,2.99999999995,0.0));
#193=SURFACE_STYLE_USAGE(.BOTH.,#304);
#194=FACE_OUTER_BOUND('',#305,.T.);
#195=PLANE('',#306);
#196=CURVE_STYLE('',#307,POSITIVE_LENGTH_MEASURE(1.0E-006),#308);
#197=LINE('',#309,#310);
#198=POINT_STYLE(' ',#311,POSITIVE_LENGTH_MEASURE(1.0E-006),#312);
#199=CARTESIAN_POINT('',(1.73205080756888,3.0,-6.55));
#200=SURFACE_STYLE_USAGE(.BOTH.,#313);
#201=FACE_OUTER_BOUND('',#314,.T.);
#202=CYLINDRICAL_SURFACE('',#315,2.0);
#203=SURFACE_STYLE_USAGE(.BOTH.,#316);
#204=FACE_OUTER_BOUND('',#317,.T.);
#205=PLANE('',#318);
#206=SURFACE_STYLE_USAGE(.BOTH.,#319);
#207=FACE_OUTER_BOUND('',#320,.T.);
#208=CYLINDRICAL_SURFACE('',#321,2.0);
#209=POINT_STYLE(' ',#322,POSITIVE_LENGTH_MEASURE(1.0E-006),#323);
#210=CARTESIAN_POINT('',(16.9740979140884,2.99999999995,-6.55));
#211=CURVE_STYLE('',#324,POSITIVE_LENGTH_MEASURE(1.0E-006),#325);
#212=LINE('',#326,#327);
#213=CURVE_STYLE('',#328,POSITIVE_LENGTH_MEASURE(1.0E-006),#329);
#214=CIRCLE('',#330,2.0);
#215=POINT_STYLE(' ',#331,POSITIVE_LENGTH_MEASURE(1.0E-006),#332);
#216=CARTESIAN_POINT('',(3.46410161513775,0.0,-6.55));
#217=CURVE_STYLE('',#333,POSITIVE_LENGTH_MEASURE(1.0E-006),#334);
#218=LINE('',#335,#336);
#219=POINT_STYLE(' ',#337,POSITIVE_LENGTH_MEASURE(1.0E-006),#338);
#220=CARTESIAN_POINT('',(15.2420471066061,0.0,0.0));
#221=CURVE_STYLE('',#339,POSITIVE_LENGTH_MEASURE(1.0E-006),#340);
#222=LINE('',#341,#342);
#223=CURVE_STYLE('',#343,POSITIVE_LENGTH_MEASURE(1.0E-006),#344);
#224=CIRCLE('',#345,2.0);
#225=POINT_STYLE(' ',#346,POSITIVE_LENGTH_MEASURE(1.0E-006),#347);
#226=CARTESIAN_POINT('',(3.46410161513775,0.0,0.0));
#227=POINT_STYLE(' ',#348,POSITIVE_LENGTH_MEASURE(1.0E-006),#349);
#228=CARTESIAN_POINT('',(1.73205080756888,3.0,0.0));
#229=SURFACE_STYLE_USAGE(.BOTH.,#350);
#230=FACE_OUTER_BOUND('',#351,.T.);
#231=PLANE('',#352);
#232=SURFACE_STYLE_USAGE(.BOTH.,#353);
#233=CLOSED_SHELL('',(#103,#105,#107,#85,#87,#63,#129,#97));
#234=POINT_STYLE(' ',#354,POSITIVE_LENGTH_MEASURE(1.0E-006),#355);
#235=CARTESIAN_POINT('',(11.0851251684408,13.2,-6.55));
#236=CURVE_STYLE('',#356,POSITIVE_LENGTH_MEASURE(1.0E-006),#357);
#237=CIRCLE('',#358,2.0);
#238=POINT_STYLE(' ',#359,POSITIVE_LENGTH_MEASURE(1.0E-006),#360);
#239=CARTESIAN_POINT('',(7.62102355338966,13.19999999995,0.0));
#240=POINT_STYLE(' ',#361,POSITIVE_LENGTH_MEASURE(1.0E-006),#362);
#241=CARTESIAN_POINT('',(15.2420471066061,0.0,-6.55));
#242=PRODUCT_CONTEXT('',#49,'mechanical');
#243=PRODUCT_DEFINITION_FORMATION_WITH_SPECIFIED_SOURCE(' ','NONE',#140,.NOT_KNOWN.);
#244=CARTESIAN_POINT('',(0.0,0.0,0.0));
#245=DIRECTION('',(0.0,0.0,1.0));
#246=DIRECTION('',(1.0,0.0,0.0));
#247= (NAMED_UNIT(#148)LENGTH_UNIT()SI_UNIT(.MILLI.,.METRE.));
#248=SURFACE_SIDE_STYLE('',(#364));
#249=EDGE_LOOP('',(#365,#366,#367,#368));
#250=AXIS2_PLACEMENT_3D('',#369,#370,#371);
#251=DRAUGHTING_PRE_DEFINED_CURVE_FONT('continuous');
#252=COLOUR_RGB('',0.800000011920929,0.800000011920929,0.800000011920929);
#253=CARTESIAN_POINT('',(7.62102355330306,13.2,0.0));
#254=VECTOR('',#372,1.0);
#255=DRAUGHTING_PRE_DEFINED_CURVE_FONT('continuous');
#256=COLOUR_RGB('',0.800000011920929,0.800000011920929,0.800000011920929);
#257=CARTESIAN_POINT('',(16.9740979140884,2.99999999995,0.0));
#258=VECTOR('',#373,1.0);
#259=DRAUGHTING_PRE_DEFINED_CURVE_FONT('continuous');
#260=COLOUR_RGB('',0.800000011920929,0.800000011920929,0.800000011920929);
#261=CARTESIAN_POINT('',(3.46410161513775,0.0,0.0));
#262=VECTOR('',#374,1.0);
#263=DRAUGHTING_PRE_DEFINED_CURVE_FONT('continuous');
#264=COLOUR_RGB('',0.800000011920929,0.800000011920929,0.800000011920929);
#265=CARTESIAN_POINT('',(7.62102355338966,13.19999999995,0.0));
#266=VECTOR('',#375,1.0);
#267=PRE_DEFINED_MARKER('');
#268=COLOUR_RGB('',0.800000011920929,0.800000011920929,0.800000011920929);
#269=PRE_DEFINED_MARKER('');
#270=COLOUR_RGB('',0.800000011920929,0.800000011920929,0.800000011920929);
#271=DRAUGHTING_PRE_DEFINED_CURVE_FONT('continuous');
#272=COLOUR_RGB('',0.800000011920929,0.800000011920929,0.800000011920929);
#273=AXIS2_PLACEMENT_3D('',#376,#377,#378);
#274=DRAUGHTING_PRE_DEFINED_CURVE_FONT('continuous');
#275=COLOUR_RGB('',0.800000011920929,0.800000011920929,0.800000011920929);
#276=CARTESIAN_POINT('',(1.73205080756888,3.0,0.0));
#277=VECTOR('',#379,1.0);
#278=DRAUGHTING_PRE_DEFINED_CURVE_FONT('continuous');
#279=COLOUR_RGB('',0.800000011920929,0.800000011920929,0.800000011920929);
#280=AXIS2_PLACEMENT_3D('',#380,#381,#382);
#281=DRAUGHTING_PRE_DEFINED_CURVE_FONT('continuous');
#282=COLOUR_RGB('',0.800000011920929,0.800000011920929,0.800000011920929);
#283=CARTESIAN_POINT('',(15.2420471066061,0.0,0.0));
#284=VECTOR('',#383,1.0);
#285=SURFACE_SIDE_STYLE('',(#384));
#286=EDGE_LOOP('',(#385,#386,#387,#388));
#287=AXIS2_PLACEMENT_3D('',#389,#390,#391);
#288=SURFACE_SIDE_STYLE('',(#392));
#289=EDGE_LOOP('',(#393,#394,#395,#396));
#290=AXIS2_PLACEMENT_3D('',#397,#398,#399);
#291=DRAUGHTING_PRE_DEFINED_CURVE_FONT('continuous');
#292=COLOUR_RGB('',0.800000011920929,0.800000011920929,0.800000011920929);
#293=CARTESIAN_POINT('',(11.0851251684408,13.2,0.0));
#294=VECTOR('',#400,1.0);
#295=DRAUGHTING_PRE_DEFINED_CURVE_FONT('continuous');
#296=COLOUR_RGB('',0.800000011920929,0.800000011920929,0.800000011920929);
#297=AXIS2_PLACEMENT_3D('',#401,#402,#403);
#298=DRAUGHTING_PRE_DEFINED_CURVE_FONT('continuous');
#299=COLOUR_RGB('',0.800000011920929,0.800000011920929,0.800000011920929);
#300=CARTESIAN_POINT('',(3.46410161513775,0.0,0.0));
#301=VECTOR('',#404,1.0);
#302=PRE_DEFINED_MARKER('');
#303=COLOUR_RGB('',0.800000011920929,0.800000011920929,0.800000011920929);
#304=SURFACE_SIDE_STYLE('',(#405));
#305=EDGE_LOOP('',(#406,#407,#408,#409,#410,#411));
#306=AXIS2_PLACEMENT_3D('',#412,#413,#414);
#307=DRAUGHTING_PRE_DEFINED_CURVE_FONT('continuous');
#308=COLOUR_RGB('',0.800000011920929,0.800000011920929,0.800000011920929);
#309=CARTESIAN_POINT('',(3.46410161513775,0.0,-6.55));
#310=VECTOR('',#415,1.0);
#311=PRE_DEFINED_MARKER('');
#312=COLOUR_RGB('',0.800000011920929,0.800000011920929,0.800000011920929);
#313=SURFACE_SIDE_STYLE('',(#416));
#314=EDGE_LOOP('',(#417,#418,#419,#420));
#315=AXIS2_PLACEMENT_3D('',#421,#422,#423);
#316=SURFACE_SIDE_STYLE('',(#424));
#317=EDGE_LOOP('',(#425,#426,#427,#428));
#318=AXIS2_PLACEMENT_3D('',#429,#430,#431);
#319=SURFACE_SIDE_STYLE('',(#432));
#320=EDGE_LOOP('',(#433,#434,#435,#436));
#321=AXIS2_PLACEMENT_3D('',#437,#438,#439);
#322=PRE_DEFINED_MARKER('');
#323=COLOUR_RGB('',0.800000011920929,0.800000011920929,0.800000011920929);
#324=DRAUGHTING_PRE_DEFINED_CURVE_FONT('continuous');
#325=COLOUR_RGB('',0.800000011920929,0.800000011920929,0.800000011920929);
#326=CARTESIAN_POINT('',(7.62102355330306,13.2,-6.55));
#327=VECTOR('',#440,1.0);
#328=DRAUGHTING_PRE_DEFINED_CURVE_FONT('continuous');
#329=COLOUR_RGB('',0.800000011920929,0.800000011920929,0.800000011920929);
#330=AXIS2_PLACEMENT_3D('',#441,#442,#443);
#331=PRE_DEFINED_MARKER('');
#332=COLOUR_RGB('',0.800000011920929,0.800000011920929,0.800000011920929);
#333=DRAUGHTING_PRE_DEFINED_CURVE_FONT('continuous');
#334=COLOUR_RGB('',0.800000011920929,0.800000011920929,0.800000011920929);
#335=CARTESIAN_POINT('',(16.974097914175,3.0,0.0));
#336=VECTOR('',#444,1.0);
#337=PRE_DEFINED_MARKER('');
#338=COLOUR_RGB('',0.800000011920929,0.800000011920929,0.800000011920929);
#339=DRAUGHTING_PRE_DEFINED_CURVE_FONT('continuous');
#340=COLOUR_RGB('',0.800000011920929,0.800000011920929,0.800000011920929);
#341=CARTESIAN_POINT('',(16.974097914175,3.0,-6.55));
#342=VECTOR('',#445,1.0);
#343=DRAUGHTING_PRE_DEFINED_CURVE_FONT('continuous');
#344=COLOUR_RGB('',0.800000011920929,0.800000011920929,0.800000011920929);
#345=AXIS2_PLACEMENT_3D('',#446,#447,#448);
#346=PRE_DEFINED_MARKER('');
#347=COLOUR_RGB('',0.800000011920929,0.800000011920929,0.800000011920929);
#348=PRE_DEFINED_MARKER('');
#349=COLOUR_RGB('',0.800000011920929,0.800000011920929,0.800000011920929);
#350=SURFACE_SIDE_STYLE('',(#449));
#351=EDGE_LOOP('',(#450,#451,#452,#453,#454,#455));
#352=AXIS2_PLACEMENT_3D('',#456,#457,#458);
#353=SURFACE_SIDE_STYLE('',(#459));
#354=PRE_DEFINED_MARKER('');
#355=COLOUR_RGB('',0.800000011920929,0.800000011920929,0.800000011920929);
#356=DRAUGHTING_PRE_DEFINED_CURVE_FONT('continuous');
#357=COLOUR_RGB('',0.800000011920929,0.800000011920929,0.800000011920929);
#358=AXIS2_PLACEMENT_3D('',#460,#461,#462);
#359=PRE_DEFINED_MARKER('');
#360=COLOUR_RGB('',0.800000011920929,0.800000011920929,0.800000011920929);
#361=PRE_DEFINED_MARKER('');
#362=COLOUR_RGB('',0.800000011920929,0.800000011920929,0.800000011920929);
#364=SURFACE_STYLE_FILL_AREA(#463);
#365=ORIENTED_EDGE('',*,*,#99,.T.);
#366=ORIENTED_EDGE('',*,*,#83,.F.);
#367=ORIENTED_EDGE('',*,*,#93,.F.);
#368=ORIENTED_EDGE('',*,*,#69,.T.);
#369=CARTESIAN_POINT('',(3.46410161513775,0.0,0.0));
#370=DIRECTION('',(0.0,-1.0,-0.0));
#371=DIRECTION('',(-1.0,0.0,-0.0));
#372=DIRECTION('',(-0.5,-0.866025403784439,0.0));
#373=DIRECTION('',(0.0,0.0,-1.0));
#374=DIRECTION('',(0.0,0.0,-1.0));
#375=DIRECTION('',(0.0,0.0,-1.0));
#376=CARTESIAN_POINT('',(15.2420471064329,2.0000000001,0.0));
#377=DIRECTION('',(0.0,0.0,1.0));
#378=DIRECTION('',(8.66045013481198E-011,-1.0,0.0));
#379=DIRECTION('',(0.0,0.0,-1.0));
#380=CARTESIAN_POINT('',(3.46410161531096,2.0000000001,-6.55));
#381=DIRECTION('',(0.0,0.0,1.0));
#382=DIRECTION('',(-0.86602540382774,0.499999999924999,0.0));
#383=DIRECTION('',(0.0,0.0,-1.0));
#384=SURFACE_STYLE_FILL_AREA(#464);
#385=ORIENTED_EDGE('',*,*,#111,.T.);
#386=ORIENTED_EDGE('',*,*,#79,.F.);
#387=ORIENTED_EDGE('',*,*,#65,.F.);
#388=ORIENTED_EDGE('',*,*,#71,.T.);
#389=CARTESIAN_POINT('',(7.62102355338966,13.19999999995,0.0));
#390=DIRECTION('',(-0.866025403784439,0.5,0.0));
#391=DIRECTION('',(0.5,0.866025403784439,-0.0));
#392=SURFACE_STYLE_FILL_AREA(#465);
#393=ORIENTED_EDGE('',*,*,#81,.T.);
#394=ORIENTED_EDGE('',*,*,#69,.F.);
#395=ORIENTED_EDGE('',*,*,#135,.F.);
#396=ORIENTED_EDGE('',*,*,#79,.T.);
#397=CARTESIAN_POINT('',(3.46410161531096,2.0000000001,0.0));
#398=DIRECTION('',(-0.0,-0.0,1.0));
#399=DIRECTION('',(-0.86602540382774,0.499999999924999,0.0));
#400=DIRECTION('',(0.0,0.0,-1.0));
#401=CARTESIAN_POINT('',(15.2420471064329,2.0000000001,-6.55));
#402=DIRECTION('',(0.0,0.0,1.0));
#403=DIRECTION('',(8.66045013481198E-011,-1.0,0.0));
#404=DIRECTION('',(1.0,0.0,0.0));
#405=SURFACE_STYLE_FILL_AREA(#466);
#406=ORIENTED_EDGE('',*,*,#93,.T.);
#407=ORIENTED_EDGE('',*,*,#77,.T.);
#408=ORIENTED_EDGE('',*,*,#117,.T.);
#409=ORIENTED_EDGE('',*,*,#123,.T.);
#410=ORIENTED_EDGE('',*,*,#65,.T.);
#411=ORIENTED_EDGE('',*,*,#135,.T.);
#412=CARTESIAN_POINT('',(9.35307436087194,5.4,0.0));
#413=DIRECTION('',(0.0,0.0,1.0));
#414=DIRECTION('',(1.0,0.0,0.0));
#415=DIRECTION('',(1.0,0.0,0.0));
#416=SURFACE_STYLE_FILL_AREA(#467);
#417=ORIENTED_EDGE('',*,*,#91,.T.);
#418=ORIENTED_EDGE('',*,*,#67,.F.);
#419=ORIENTED_EDGE('',*,*,#77,.F.);
#420=ORIENTED_EDGE('',*,*,#83,.T.);
#421=CARTESIAN_POINT('',(15.2420471064329,2.0000000001,0.0));
#422=DIRECTION('',(-0.0,-0.0,1.0));
#423=DIRECTION('',(8.66045013481198E-011,-1.0,0.0));
#424=SURFACE_STYLE_FILL_AREA(#468);
#425=ORIENTED_EDGE('',*,*,#121,.T.);
#426=ORIENTED_EDGE('',*,*,#89,.F.);
#427=ORIENTED_EDGE('',*,*,#117,.F.);
#428=ORIENTED_EDGE('',*,*,#67,.T.);
#429=CARTESIAN_POINT('',(16.9740979140884,2.99999999995,0.0));
#430=DIRECTION('',(0.866025403784439,0.5,0.0));
#431=DIRECTION('',(0.5,-0.866025403784439,-0.0));
#432=SURFACE_STYLE_FILL_AREA(#469);
#433=ORIENTED_EDGE('',*,*,#113,.T.);
#434=ORIENTED_EDGE('',*,*,#71,.F.);
#435=ORIENTED_EDGE('',*,*,#123,.F.);
#436=ORIENTED_EDGE('',*,*,#89,.T.);
#437=CARTESIAN_POINT('',(9.35307436087194,12.1999999998,0.0));
#438=DIRECTION('',(-0.0,-0.0,1.0));
#439=DIRECTION('',(0.866025403741137,0.500000000075001,0.0));
#440=DIRECTION('',(-0.5,-0.866025403784439,0.0));
#441=CARTESIAN_POINT('',(9.35307436087194,12.1999999998,-6.55));
#442=DIRECTION('',(0.0,-0.0,1.0));
#443=DIRECTION('',(0.866025403741137,0.500000000075001,0.0));
#444=DIRECTION('',(-0.5,0.866025403784439,0.0));
#445=DIRECTION('',(-0.5,0.866025403784439,0.0));
#446=CARTESIAN_POINT('',(9.35307436087194,12.1999999998,0.0));
#447=DIRECTION('',(0.0,-0.0,1.0));
#448=DIRECTION('',(0.866025403741137,0.500000000075001,0.0));
#449=SURFACE_STYLE_FILL_AREA(#470);
#450=ORIENTED_EDGE('',*,*,#91,.F.);
#451=ORIENTED_EDGE('',*,*,#99,.F.);
#452=ORIENTED_EDGE('',*,*,#81,.F.);
#453=ORIENTED_EDGE('',*,*,#111,.F.);
#454=ORIENTED_EDGE('',*,*,#113,.F.);
#455=ORIENTED_EDGE('',*,*,#121,.F.);
#456=CARTESIAN_POINT('',(9.35307436087194,5.4,-6.55));
#457=DIRECTION('',(0.0,0.0,1.0));
#458=DIRECTION('',(1.0,0.0,0.0));
#459=SURFACE_STYLE_FILL_AREA(#471);
#460=CARTESIAN_POINT('',(3.46410161531096,2.0000000001,0.0));
#461=DIRECTION('',(0.0,0.0,1.0));
#462=DIRECTION('',(-0.86602540382774,0.499999999924999,0.0));
#463=FILL_AREA_STYLE('',(#472));
#464=FILL_AREA_STYLE('',(#473));
#465=FILL_AREA_STYLE('',(#474));
#466=FILL_AREA_STYLE('',(#475));
#467=FILL_AREA_STYLE('',(#476));
#468=FILL_AREA_STYLE('',(#477));
#469=FILL_AREA_STYLE('',(#478));
#470=FILL_AREA_STYLE('',(#479));
#471=FILL_AREA_STYLE('',(#480));
#472=FILL_AREA_STYLE_COLOUR('',#481);
#473=FILL_AREA_STYLE_COLOUR('',#482);
#474=FILL_AREA_STYLE_COLOUR('',#483);
#475=FILL_AREA_STYLE_COLOUR('',#484);
#476=FILL_AREA_STYLE_COLOUR('',#485);
#477=FILL_AREA_STYLE_COLOUR('',#486);
#478=FILL_AREA_STYLE_COLOUR('',#487);
#479=FILL_AREA_STYLE_COLOUR('',#488);
#480=FILL_AREA_STYLE_COLOUR('',#489);
#481=COLOUR_RGB('',0.800000011920929,0.800000011920929,0.800000011920929);
#482=COLOUR_RGB('',0.800000011920929,0.800000011920929,0.800000011920929);
#483=COLOUR_RGB('',0.800000011920929,0.800000011920929,0.800000011920929);
#484=COLOUR_RGB('',0.800000011920929,0.800000011920929,0.800000011920929);
#485=COLOUR_RGB('',0.800000011920929,0.800000011920929,0.800000011920929);
#486=COLOUR_RGB('',0.800000011920929,0.800000011920929,0.800000011920929);
#487=COLOUR_RGB('',0.800000011920929,0.800000011920929,0.800000011920929);
#488=COLOUR_RGB('',0.800000011920929,0.800000011920929,0.800000011920929);
#489=COLOUR_RGB('',0.800000011920929,0.800000011920929,0.800000011920929);
#490=AXIS2_PLACEMENT_3D('PCS',#491,#492,#493);
#491=CARTESIAN_POINT('',(0.0,0.0,0.0));
#492=DIRECTION('',(0.0,0.0,1.0));
#493=DIRECTION('',(1.0,0.0,0.0));
#494=AXIS2_PLACEMENT_3D('MCS',#495,#496,#497);
#495=CARTESIAN_POINT('',(9.35307436,5.4,0.0));
#496=DIRECTION('',(0.0,0.0,1.0));
#497=DIRECTION('',(1.0,0.0,0.0));
#498=CONSTRUCTIVE_GEOMETRY_REPRESENTATION_RELATIONSHIP('coordinate systems',$,#53,#499);
#499=CONSTRUCTIVE_GEOMETRY_REPRESENTATION('coordinate systems',(#490,#494),#6);
ENDSEC;
END-ISO-10303-21;
