ISO-10303-21;
HEADER;
FILE_DESCRIPTION(('no description'),'unknown implementation level');
FILE_NAME('solidxepWuSq4VINcNNnnBCxRjAXl9ww_1.STP','  ',('CIMSOURCE GmbH'),('CADClick - KiM GmbH - www.kimweb.de'),'unknown preprocess','ACIS','unknown authorization');
FILE_SCHEMA(('automotive_design'));
ENDSEC;
DATA;
#1=MECHANICAL_DESIGN_GEOMETRIC_PRESENTATION_REPRESENTATION(' ',(#10,#11,#12,#13,#14,#15,#16,#17,#18,#19,#20,#21,#22,#23,#24),#6);
#2=PRODUCT_DEFINITION_CONTEXT('',#25,'design');
#3=APPLICATION_PROTOCOL_DEFINITION('INTERNATIONAL STANDARD','automotive_design',1994,#25);
#4=PRODUCT_CATEGORY_RELATIONSHIP('NONE','NONE',#26,#27);
#5=SHAPE_DEFINITION_REPRESENTATION(#28,#29);
#6= (GEOMETRIC_REPRESENTATION_CONTEXT(3)GLOBAL_UNCERTAINTY_ASSIGNED_CONTEXT((#32))GLOBAL_UNIT_ASSIGNED_CONTEXT((#34,#35,#36))REPRESENTATION_CONTEXT('NONE','WORKSPACE'));
#10=STYLED_ITEM('',(#38),#39);
#11=STYLED_ITEM('',(#40),#41);
#12=STYLED_ITEM('',(#42),#43);
#13=STYLED_ITEM('',(#44),#45);
#14=STYLED_ITEM('',(#46),#47);
#15=STYLED_ITEM('',(#48),#49);
#16=STYLED_ITEM('',(#50),#51);
#17=STYLED_ITEM('',(#52),#53);
#18=STYLED_ITEM('',(#54),#55);
#19=STYLED_ITEM('',(#56),#57);
#20=STYLED_ITEM('',(#58),#59);
#21=STYLED_ITEM('',(#60),#61);
#22=STYLED_ITEM('',(#62),#63);
#23=STYLED_ITEM('',(#64),#65);
#24=STYLED_ITEM('',(#66),#67);
#25=APPLICATION_CONTEXT(' ');
#26=PRODUCT_CATEGORY('part','NONE');
#27=PRODUCT_RELATED_PRODUCT_CATEGORY('detail',' ',(#68));
#28=PRODUCT_DEFINITION_SHAPE('NONE','NONE',#69);
#29=ADVANCED_BREP_SHAPE_REPRESENTATION('1',(#47,#70),#6);
#32=UNCERTAINTY_MEASURE_WITH_UNIT(LENGTH_MEASURE(1.0E-006),#34,'','');
#34= (CONVERSION_BASED_UNIT('MILLIMETRE',#73)LENGTH_UNIT()NAMED_UNIT(#76));
#35= (NAMED_UNIT(#78)PLANE_ANGLE_UNIT()SI_UNIT($,.RADIAN.));
#36= (NAMED_UNIT(#78)SOLID_ANGLE_UNIT()SI_UNIT($,.STERADIAN.));
#38=PRESENTATION_STYLE_ASSIGNMENT((#84));
#39=EDGE_CURVE('',#65,#55,#85,.T.);
#40=PRESENTATION_STYLE_ASSIGNMENT((#86));
#41=EDGE_CURVE('',#45,#67,#87,.T.);
#42=PRESENTATION_STYLE_ASSIGNMENT((#88));
#43=EDGE_CURVE('',#45,#65,#89,.T.);
#44=PRESENTATION_STYLE_ASSIGNMENT((#90));
#45=VERTEX_POINT('',#91);
#46=PRESENTATION_STYLE_ASSIGNMENT((#92));
#47=MANIFOLD_SOLID_BREP('1',#93);
#48=PRESENTATION_STYLE_ASSIGNMENT((#94));
#49=ADVANCED_FACE('',(#95),#96,.T.);
#50=PRESENTATION_STYLE_ASSIGNMENT((#97));
#51=EDGE_CURVE('',#67,#45,#98,.T.);
#52=PRESENTATION_STYLE_ASSIGNMENT((#99));
#53=ADVANCED_FACE('',(#100),#101,.F.);
#54=PRESENTATION_STYLE_ASSIGNMENT((#102));
#55=VERTEX_POINT('',#103);
#56=PRESENTATION_STYLE_ASSIGNMENT((#104));
#57=ADVANCED_FACE('',(#105),#106,.T.);
#58=PRESENTATION_STYLE_ASSIGNMENT((#107));
#59=EDGE_CURVE('',#55,#67,#108,.T.);
#60=PRESENTATION_STYLE_ASSIGNMENT((#109));
#61=EDGE_CURVE('',#55,#65,#110,.T.);
#62=PRESENTATION_STYLE_ASSIGNMENT((#111));
#63=ADVANCED_FACE('',(#112),#113,.T.);
#64=PRESENTATION_STYLE_ASSIGNMENT((#114));
#65=VERTEX_POINT('',#115);
#66=PRESENTATION_STYLE_ASSIGNMENT((#116));
#67=VERTEX_POINT('',#117);
#68=PRODUCT('1','1','PART-1-DESC',(#118));
#69=PRODUCT_DEFINITION('NONE','NONE',#119,#2);
#70=AXIS2_PLACEMENT_3D('',#120,#121,#122);
#73=LENGTH_MEASURE_WITH_UNIT(LENGTH_MEASURE(1.0),#123);
#76=DIMENSIONAL_EXPONENTS(1.0,0.0,0.0,0.0,0.0,0.0,0.0);
#78=DIMENSIONAL_EXPONENTS(0.0,0.0,0.0,0.0,0.0,0.0,0.0);
#84=CURVE_STYLE('',#124,POSITIVE_LENGTH_MEASURE(1.0E-006),#125);
#85=CIRCLE('',#126,4.22831017272326);
#86=CURVE_STYLE('',#127,POSITIVE_LENGTH_MEASURE(1.0E-006),#128);
#87=CIRCLE('',#129,5.0);
#88=CURVE_STYLE('',#130,POSITIVE_LENGTH_MEASURE(1.0E-006),#131);
#89=LINE('',#132,#133);
#90=POINT_STYLE(' ',#134,POSITIVE_LENGTH_MEASURE(1.0E-006),#135);
#91=CARTESIAN_POINT('',(10.0,5.0,0.0));
#92=SURFACE_STYLE_USAGE(.BOTH.,#136);
#93=CLOSED_SHELL('',(#49,#63,#53,#57));
#94=SURFACE_STYLE_USAGE(.BOTH.,#137);
#95=FACE_OUTER_BOUND('',#138,.T.);
#96=CONICAL_SURFACE('',#139,5.0,0.191986217719376);
#97=CURVE_STYLE('',#140,POSITIVE_LENGTH_MEASURE(1.0E-006),#141);
#98=CIRCLE('',#142,5.0);
#99=SURFACE_STYLE_USAGE(.BOTH.,#143);
#100=FACE_OUTER_BOUND('',#144,.T.);
#101=PLANE('',#145);
#102=POINT_STYLE(' ',#146,POSITIVE_LENGTH_MEASURE(1.0E-006),#147);
#103=CARTESIAN_POINT('',(0.771689827276743,5.0,-3.97));
#104=SURFACE_STYLE_USAGE(.BOTH.,#148);
#105=FACE_OUTER_BOUND('',#149,.T.);
#106=PLANE('',#150);
#107=CURVE_STYLE('',#151,POSITIVE_LENGTH_MEASURE(1.0E-006),#152);
#108=LINE('',#153,#154);
#109=CURVE_STYLE('',#155,POSITIVE_LENGTH_MEASURE(1.0E-006),#156);
#110=CIRCLE('',#157,4.22831017272326);
#111=SURFACE_STYLE_USAGE(.BOTH.,#158);
#112=FACE_OUTER_BOUND('',#159,.T.);
#113=CONICAL_SURFACE('',#160,5.0,0.191986217719376);
#114=POINT_STYLE(' ',#161,POSITIVE_LENGTH_MEASURE(1.0E-006),#162);
#115=CARTESIAN_POINT('',(9.22831017272326,5.0,-3.97));
#116=POINT_STYLE(' ',#163,POSITIVE_LENGTH_MEASURE(1.0E-006),#164);
#117=CARTESIAN_POINT('',(0.0,5.0,0.0));
#118=PRODUCT_CONTEXT('',#25,'mechanical');
#119=PRODUCT_DEFINITION_FORMATION_WITH_SPECIFIED_SOURCE(' ','NONE',#68,.NOT_KNOWN.);
#120=CARTESIAN_POINT('',(0.0,0.0,0.0));
#121=DIRECTION('',(0.0,0.0,1.0));
#122=DIRECTION('',(1.0,0.0,0.0));
#123= (NAMED_UNIT(#76)LENGTH_UNIT()SI_UNIT(.MILLI.,.METRE.));
#124=DRAUGHTING_PRE_DEFINED_CURVE_FONT('continuous');
#125=COLOUR_RGB('',0.800000011920929,0.800000011920929,0.800000011920929);
#126=AXIS2_PLACEMENT_3D('',#166,#167,#168);
#127=DRAUGHTING_PRE_DEFINED_CURVE_FONT('continuous');
#128=COLOUR_RGB('',0.800000011920929,0.800000011920929,0.800000011920929);
#129=AXIS2_PLACEMENT_3D('',#169,#170,#171);
#130=DRAUGHTING_PRE_DEFINED_CURVE_FONT('continuous');
#131=COLOUR_RGB('',0.800000011920929,0.800000011920929,0.800000011920929);
#132=CARTESIAN_POINT('',(10.0,5.0,0.0));
#133=VECTOR('',#172,1.0);
#134=PRE_DEFINED_MARKER('');
#135=COLOUR_RGB('',0.800000011920929,0.800000011920929,0.800000011920929);
#136=SURFACE_SIDE_STYLE('',(#173));
#137=SURFACE_SIDE_STYLE('',(#174));
#138=EDGE_LOOP('',(#175,#176,#177,#178));
#139=AXIS2_PLACEMENT_3D('',#179,#180,#181);
#140=DRAUGHTING_PRE_DEFINED_CURVE_FONT('continuous');
#141=COLOUR_RGB('',0.800000011920929,0.800000011920929,0.800000011920929);
#142=AXIS2_PLACEMENT_3D('',#182,#183,#184);
#143=SURFACE_SIDE_STYLE('',(#185));
#144=EDGE_LOOP('',(#186,#187));
#145=AXIS2_PLACEMENT_3D('',#188,#189,#190);
#146=PRE_DEFINED_MARKER('');
#147=COLOUR_RGB('',0.800000011920929,0.800000011920929,0.800000011920929);
#148=SURFACE_SIDE_STYLE('',(#191));
#149=EDGE_LOOP('',(#192,#193));
#150=AXIS2_PLACEMENT_3D('',#194,#195,#196);
#151=DRAUGHTING_PRE_DEFINED_CURVE_FONT('continuous');
#152=COLOUR_RGB('',0.800000011920929,0.800000011920929,0.800000011920929);
#153=CARTESIAN_POINT('',(8.88178419700125E-016,5.0,0.0));
#154=VECTOR('',#197,1.0);
#155=DRAUGHTING_PRE_DEFINED_CURVE_FONT('continuous');
#156=COLOUR_RGB('',0.800000011920929,0.800000011920929,0.800000011920929);
#157=AXIS2_PLACEMENT_3D('',#198,#199,#200);
#158=SURFACE_SIDE_STYLE('',(#201));
#159=EDGE_LOOP('',(#202,#203,#204,#205));
#160=AXIS2_PLACEMENT_3D('',#206,#207,#208);
#161=PRE_DEFINED_MARKER('');
#162=COLOUR_RGB('',0.800000011920929,0.800000011920929,0.800000011920929);
#163=PRE_DEFINED_MARKER('');
#164=COLOUR_RGB('',0.800000011920929,0.800000011920929,0.800000011920929);
#166=CARTESIAN_POINT('',(5.0,5.0,-3.97));
#167=DIRECTION('',(0.0,0.0,1.0));
#168=DIRECTION('',(-1.0,5.32907051820075E-016,0.0));
#169=CARTESIAN_POINT('',(5.0,5.0,0.0));
#170=DIRECTION('',(0.0,0.0,1.0));
#171=DIRECTION('',(1.0,0.0,0.0));
#172=DIRECTION('',(-0.190808995376545,-3.38944863956216E-017,-0.981627183447664));
#173=SURFACE_STYLE_FILL_AREA(#209);
#174=SURFACE_STYLE_FILL_AREA(#210);
#175=ORIENTED_EDGE('',*,*,#43,.F.);
#176=ORIENTED_EDGE('',*,*,#51,.F.);
#177=ORIENTED_EDGE('',*,*,#59,.F.);
#178=ORIENTED_EDGE('',*,*,#61,.T.);
#179=CARTESIAN_POINT('',(5.0,5.0,0.0));
#180=DIRECTION('',(-0.0,-0.0,1.0));
#181=DIRECTION('',(1.0,0.0,0.0));
#182=CARTESIAN_POINT('',(5.0,5.0,0.0));
#183=DIRECTION('',(0.0,0.0,1.0));
#184=DIRECTION('',(1.0,0.0,0.0));
#185=SURFACE_STYLE_FILL_AREA(#211);
#186=ORIENTED_EDGE('',*,*,#39,.F.);
#187=ORIENTED_EDGE('',*,*,#61,.F.);
#188=CARTESIAN_POINT('',(5.0,5.0,-3.97));
#189=DIRECTION('',(0.0,0.0,1.0));
#190=DIRECTION('',(1.0,0.0,0.0));
#191=SURFACE_STYLE_FILL_AREA(#212);
#192=ORIENTED_EDGE('',*,*,#51,.T.);
#193=ORIENTED_EDGE('',*,*,#41,.T.);
#194=CARTESIAN_POINT('',(5.0,5.0,0.0));
#195=DIRECTION('',(0.0,0.0,1.0));
#196=DIRECTION('',(1.0,0.0,0.0));
#197=DIRECTION('',(-0.190808995376545,-3.38944863956216E-017,0.981627183447664));
#198=CARTESIAN_POINT('',(5.0,5.0,-3.97));
#199=DIRECTION('',(0.0,0.0,1.0));
#200=DIRECTION('',(-1.0,5.32907051820075E-016,0.0));
#201=SURFACE_STYLE_FILL_AREA(#213);
#202=ORIENTED_EDGE('',*,*,#43,.T.);
#203=ORIENTED_EDGE('',*,*,#39,.T.);
#204=ORIENTED_EDGE('',*,*,#59,.T.);
#205=ORIENTED_EDGE('',*,*,#41,.F.);
#206=CARTESIAN_POINT('',(5.0,5.0,0.0));
#207=DIRECTION('',(-0.0,-0.0,1.0));
#208=DIRECTION('',(1.0,0.0,0.0));
#209=FILL_AREA_STYLE('',(#214));
#210=FILL_AREA_STYLE('',(#215));
#211=FILL_AREA_STYLE('',(#216));
#212=FILL_AREA_STYLE('',(#217));
#213=FILL_AREA_STYLE('',(#218));
#214=FILL_AREA_STYLE_COLOUR('',#219);
#215=FILL_AREA_STYLE_COLOUR('',#220);
#216=FILL_AREA_STYLE_COLOUR('',#221);
#217=FILL_AREA_STYLE_COLOUR('',#222);
#218=FILL_AREA_STYLE_COLOUR('',#223);
#219=COLOUR_RGB('',0.800000011920929,0.800000011920929,0.800000011920929);
#220=COLOUR_RGB('',0.800000011920929,0.800000011920929,0.800000011920929);
#221=COLOUR_RGB('',0.800000011920929,0.800000011920929,0.800000011920929);
#222=COLOUR_RGB('',0.800000011920929,0.800000011920929,0.800000011920929);
#223=COLOUR_RGB('',0.800000011920929,0.800000011920929,0.800000011920929);
#224=AXIS2_PLACEMENT_3D('PCS',#225,#226,#227);
#225=CARTESIAN_POINT('',(0.0,0.0,0.0));
#226=DIRECTION('',(0.0,0.0,1.0));
#227=DIRECTION('',(1.0,0.0,0.0));
#228=AXIS2_PLACEMENT_3D('MCS',#229,#230,#231);
#229=CARTESIAN_POINT('',(5.0,5.0,0.0));
#230=DIRECTION('',(0.0,0.0,1.0));
#231=DIRECTION('',(1.0,0.0,0.0));
#232=CONSTRUCTIVE_GEOMETRY_REPRESENTATION_RELATIONSHIP('coordinate systems',$,#29,#233);
#233=CONSTRUCTIVE_GEOMETRY_REPRESENTATION('coordinate systems',(#224,#228),#6);
ENDSEC;
END-ISO-10303-21;
