ISO-10303-21;
HEADER;
FILE_DESCRIPTION(('no description'),'unknown implementation level');
FILE_NAME('solid64OkhHmkCr_ayXhAmKmgQBlSA8g_1.STP','  ',('CIMSOURCE GmbH'),('CADClick - KiM GmbH - www.kimweb.de'),'unknown preprocess','ACIS','unknown authorization');
FILE_SCHEMA(('automotive_design'));
ENDSEC;
DATA;
#1=MECHANICAL_DESIGN_GEOMETRIC_PRESENTATION_REPRESENTATION(' ',(#10,#11,#12,#13,#14,#15,#16,#17,#18,#19,#20,#21,#22,#23,#24),#6);
#2=PRODUCT_DEFINITION_CONTEXT('',#25,'design');
#3=APPLICATION_PROTOCOL_DEFINITION('INTERNATIONAL STANDARD','automotive_design',1994,#25);
#4=PRODUCT_CATEGORY_RELATIONSHIP('NONE','NONE',#26,#27);
#5=SHAPE_DEFINITION_REPRESENTATION(#28,#29);
#6= (GEOMETRIC_REPRESENTATION_CONTEXT(3)GLOBAL_UNCERTAINTY_ASSIGNED_CONTEXT((#32))GLOBAL_UNIT_ASSIGNED_CONTEXT((#34,#35,#36))REPRESENTATION_CONTEXT('NONE','WORKSPACE'));
#10=STYLED_ITEM('',(#38),#39);
#11=STYLED_ITEM('',(#40),#41);
#12=STYLED_ITEM('',(#42),#43);
#13=STYLED_ITEM('',(#44),#45);
#14=STYLED_ITEM('',(#46),#47);
#15=STYLED_ITEM('',(#48),#49);
#16=STYLED_ITEM('',(#50),#51);
#17=STYLED_ITEM('',(#52),#53);
#18=STYLED_ITEM('',(#54),#55);
#19=STYLED_ITEM('',(#56),#57);
#20=STYLED_ITEM('',(#58),#59);
#21=STYLED_ITEM('',(#60),#61);
#22=STYLED_ITEM('',(#62),#63);
#23=STYLED_ITEM('',(#64),#65);
#24=STYLED_ITEM('',(#66),#67);
#25=APPLICATION_CONTEXT(' ');
#26=PRODUCT_CATEGORY('part','NONE');
#27=PRODUCT_RELATED_PRODUCT_CATEGORY('detail',' ',(#68));
#28=PRODUCT_DEFINITION_SHAPE('NONE','NONE',#69);
#29=ADVANCED_BREP_SHAPE_REPRESENTATION('1',(#43,#70),#6);
#32=UNCERTAINTY_MEASURE_WITH_UNIT(LENGTH_MEASURE(1.0E-006),#34,'','');
#34= (CONVERSION_BASED_UNIT('MILLIMETRE',#73)LENGTH_UNIT()NAMED_UNIT(#76));
#35= (NAMED_UNIT(#78)PLANE_ANGLE_UNIT()SI_UNIT($,.RADIAN.));
#36= (NAMED_UNIT(#78)SOLID_ANGLE_UNIT()SI_UNIT($,.STERADIAN.));
#38=PRESENTATION_STYLE_ASSIGNMENT((#84));
#39=ADVANCED_FACE('',(#85),#86,.T.);
#40=PRESENTATION_STYLE_ASSIGNMENT((#87));
#41=VERTEX_POINT('',#88);
#42=PRESENTATION_STYLE_ASSIGNMENT((#89));
#43=MANIFOLD_SOLID_BREP('1',#90);
#44=PRESENTATION_STYLE_ASSIGNMENT((#91));
#45=VERTEX_POINT('',#92);
#46=PRESENTATION_STYLE_ASSIGNMENT((#93));
#47=EDGE_CURVE('',#65,#53,#94,.T.);
#48=PRESENTATION_STYLE_ASSIGNMENT((#95));
#49=EDGE_CURVE('',#53,#41,#96,.T.);
#50=PRESENTATION_STYLE_ASSIGNMENT((#97));
#51=EDGE_CURVE('',#41,#45,#98,.T.);
#52=PRESENTATION_STYLE_ASSIGNMENT((#99));
#53=VERTEX_POINT('',#100);
#54=PRESENTATION_STYLE_ASSIGNMENT((#101));
#55=ADVANCED_FACE('',(#102),#103,.F.);
#56=PRESENTATION_STYLE_ASSIGNMENT((#104));
#57=EDGE_CURVE('',#45,#65,#105,.T.);
#58=PRESENTATION_STYLE_ASSIGNMENT((#106));
#59=ADVANCED_FACE('',(#107),#108,.T.);
#60=PRESENTATION_STYLE_ASSIGNMENT((#109));
#61=EDGE_CURVE('',#53,#65,#110,.T.);
#62=PRESENTATION_STYLE_ASSIGNMENT((#111));
#63=ADVANCED_FACE('',(#112),#113,.T.);
#64=PRESENTATION_STYLE_ASSIGNMENT((#114));
#65=VERTEX_POINT('',#115);
#66=PRESENTATION_STYLE_ASSIGNMENT((#116));
#67=EDGE_CURVE('',#45,#41,#117,.T.);
#68=PRODUCT('1','1','PART-1-DESC',(#118));
#69=PRODUCT_DEFINITION('NONE','NONE',#119,#2);
#70=AXIS2_PLACEMENT_3D('',#120,#121,#122);
#73=LENGTH_MEASURE_WITH_UNIT(LENGTH_MEASURE(1.0),#123);
#76=DIMENSIONAL_EXPONENTS(1.0,0.0,0.0,0.0,0.0,0.0,0.0);
#78=DIMENSIONAL_EXPONENTS(0.0,0.0,0.0,0.0,0.0,0.0,0.0);
#84=SURFACE_STYLE_USAGE(.BOTH.,#124);
#85=FACE_OUTER_BOUND('',#125,.T.);
#86=CONICAL_SURFACE('',#126,6.0,0.191986217719376);
#87=POINT_STYLE(' ',#127,POSITIVE_LENGTH_MEASURE(1.0E-006),#128);
#88=CARTESIAN_POINT('',(3.5527136788005E-015,6.00000000000001,0.0));
#89=SURFACE_STYLE_USAGE(.BOTH.,#129);
#90=CLOSED_SHELL('',(#59,#39,#55,#63));
#91=POINT_STYLE(' ',#130,POSITIVE_LENGTH_MEASURE(1.0E-006),#131);
#92=CARTESIAN_POINT('',(12.0,6.0,0.0));
#93=CURVE_STYLE('',#132,POSITIVE_LENGTH_MEASURE(1.0E-006),#133);
#94=CIRCLE('',#134,5.07474972850446);
#95=CURVE_STYLE('',#135,POSITIVE_LENGTH_MEASURE(1.0E-006),#136);
#96=LINE('',#137,#138);
#97=CURVE_STYLE('',#139,POSITIVE_LENGTH_MEASURE(1.0E-006),#140);
#98=CIRCLE('',#141,6.0);
#99=POINT_STYLE(' ',#142,POSITIVE_LENGTH_MEASURE(1.0E-006),#143);
#100=CARTESIAN_POINT('',(0.92525027149554,6.0,-4.76));
#101=SURFACE_STYLE_USAGE(.BOTH.,#144);
#102=FACE_OUTER_BOUND('',#145,.T.);
#103=PLANE('',#146);
#104=CURVE_STYLE('',#147,POSITIVE_LENGTH_MEASURE(1.0E-006),#148);
#105=LINE('',#149,#150);
#106=SURFACE_STYLE_USAGE(.BOTH.,#151);
#107=FACE_OUTER_BOUND('',#152,.T.);
#108=CONICAL_SURFACE('',#153,6.0,0.191986217719376);
#109=CURVE_STYLE('',#154,POSITIVE_LENGTH_MEASURE(1.0E-006),#155);
#110=CIRCLE('',#156,5.07474972850446);
#111=SURFACE_STYLE_USAGE(.BOTH.,#157);
#112=FACE_OUTER_BOUND('',#158,.T.);
#113=PLANE('',#159);
#114=POINT_STYLE(' ',#160,POSITIVE_LENGTH_MEASURE(1.0E-006),#161);
#115=CARTESIAN_POINT('',(11.0747497285045,6.0,-4.76));
#116=CURVE_STYLE('',#162,POSITIVE_LENGTH_MEASURE(1.0E-006),#163);
#117=CIRCLE('',#164,6.0);
#118=PRODUCT_CONTEXT('',#25,'mechanical');
#119=PRODUCT_DEFINITION_FORMATION_WITH_SPECIFIED_SOURCE(' ','NONE',#68,.NOT_KNOWN.);
#120=CARTESIAN_POINT('',(0.0,0.0,0.0));
#121=DIRECTION('',(0.0,0.0,1.0));
#122=DIRECTION('',(1.0,0.0,0.0));
#123= (NAMED_UNIT(#76)LENGTH_UNIT()SI_UNIT(.MILLI.,.METRE.));
#124=SURFACE_SIDE_STYLE('',(#166));
#125=EDGE_LOOP('',(#167,#168,#169,#170));
#126=AXIS2_PLACEMENT_3D('',#171,#172,#173);
#127=PRE_DEFINED_MARKER('');
#128=COLOUR_RGB('',0.800000011920929,0.800000011920929,0.800000011920929);
#129=SURFACE_SIDE_STYLE('',(#174));
#130=PRE_DEFINED_MARKER('');
#131=COLOUR_RGB('',0.800000011920929,0.800000011920929,0.800000011920929);
#132=DRAUGHTING_PRE_DEFINED_CURVE_FONT('continuous');
#133=COLOUR_RGB('',0.800000011920929,0.800000011920929,0.800000011920929);
#134=AXIS2_PLACEMENT_3D('',#175,#176,#177);
#135=DRAUGHTING_PRE_DEFINED_CURVE_FONT('continuous');
#136=COLOUR_RGB('',0.800000011920929,0.800000011920929,0.800000011920929);
#137=CARTESIAN_POINT('',(4.44089209850063E-015,6.0,0.0));
#138=VECTOR('',#178,1.0);
#139=DRAUGHTING_PRE_DEFINED_CURVE_FONT('continuous');
#140=COLOUR_RGB('',0.800000011920929,0.800000011920929,0.800000011920929);
#141=AXIS2_PLACEMENT_3D('',#179,#180,#181);
#142=PRE_DEFINED_MARKER('');
#143=COLOUR_RGB('',0.800000011920929,0.800000011920929,0.800000011920929);
#144=SURFACE_SIDE_STYLE('',(#182));
#145=EDGE_LOOP('',(#183,#184));
#146=AXIS2_PLACEMENT_3D('',#185,#186,#187);
#147=DRAUGHTING_PRE_DEFINED_CURVE_FONT('continuous');
#148=COLOUR_RGB('',0.800000011920929,0.800000011920929,0.800000011920929);
#149=CARTESIAN_POINT('',(12.0,6.0,0.0));
#150=VECTOR('',#188,1.0);
#151=SURFACE_SIDE_STYLE('',(#189));
#152=EDGE_LOOP('',(#190,#191,#192,#193));
#153=AXIS2_PLACEMENT_3D('',#194,#195,#196);
#154=DRAUGHTING_PRE_DEFINED_CURVE_FONT('continuous');
#155=COLOUR_RGB('',0.800000011920929,0.800000011920929,0.800000011920929);
#156=AXIS2_PLACEMENT_3D('',#197,#198,#199);
#157=SURFACE_SIDE_STYLE('',(#200));
#158=EDGE_LOOP('',(#201,#202));
#159=AXIS2_PLACEMENT_3D('',#203,#204,#205);
#160=PRE_DEFINED_MARKER('');
#161=COLOUR_RGB('',0.800000011920929,0.800000011920929,0.800000011920929);
#162=DRAUGHTING_PRE_DEFINED_CURVE_FONT('continuous');
#163=COLOUR_RGB('',0.800000011920929,0.800000011920929,0.800000011920929);
#164=AXIS2_PLACEMENT_3D('',#206,#207,#208);
#166=SURFACE_STYLE_FILL_AREA(#209);
#167=ORIENTED_EDGE('',*,*,#57,.T.);
#168=ORIENTED_EDGE('',*,*,#47,.T.);
#169=ORIENTED_EDGE('',*,*,#49,.T.);
#170=ORIENTED_EDGE('',*,*,#67,.F.);
#171=CARTESIAN_POINT('',(6.0,6.0,0.0));
#172=DIRECTION('',(-0.0,-0.0,1.0));
#173=DIRECTION('',(1.0,-4.44089209850063E-016,0.0));
#174=SURFACE_STYLE_FILL_AREA(#210);
#175=CARTESIAN_POINT('',(6.0,6.0,-4.76));
#176=DIRECTION('',(0.0,0.0,1.0));
#177=DIRECTION('',(-1.0,1.48029736616688E-016,0.0));
#178=DIRECTION('',(-0.190808995376545,5.64908106593693E-017,0.981627183447664));
#179=CARTESIAN_POINT('',(6.0,6.0,0.0));
#180=DIRECTION('',(0.0,0.0,1.0));
#181=DIRECTION('',(1.0,-4.44089209850063E-016,0.0));
#182=SURFACE_STYLE_FILL_AREA(#211);
#183=ORIENTED_EDGE('',*,*,#47,.F.);
#184=ORIENTED_EDGE('',*,*,#61,.F.);
#185=CARTESIAN_POINT('',(6.0,6.0,-4.76));
#186=DIRECTION('',(0.0,0.0,1.0));
#187=DIRECTION('',(1.0,0.0,0.0));
#188=DIRECTION('',(-0.190808995376545,5.64908106593693E-017,-0.981627183447664));
#189=SURFACE_STYLE_FILL_AREA(#212);
#190=ORIENTED_EDGE('',*,*,#57,.F.);
#191=ORIENTED_EDGE('',*,*,#51,.F.);
#192=ORIENTED_EDGE('',*,*,#49,.F.);
#193=ORIENTED_EDGE('',*,*,#61,.T.);
#194=CARTESIAN_POINT('',(6.0,6.0,0.0));
#195=DIRECTION('',(-0.0,-0.0,1.0));
#196=DIRECTION('',(1.0,-4.44089209850063E-016,0.0));
#197=CARTESIAN_POINT('',(6.0,6.0,-4.76));
#198=DIRECTION('',(0.0,0.0,1.0));
#199=DIRECTION('',(-1.0,1.48029736616688E-016,0.0));
#200=SURFACE_STYLE_FILL_AREA(#213);
#201=ORIENTED_EDGE('',*,*,#51,.T.);
#202=ORIENTED_EDGE('',*,*,#67,.T.);
#203=CARTESIAN_POINT('',(6.0,6.0,0.0));
#204=DIRECTION('',(0.0,0.0,1.0));
#205=DIRECTION('',(1.0,0.0,0.0));
#206=CARTESIAN_POINT('',(6.0,6.0,0.0));
#207=DIRECTION('',(0.0,0.0,1.0));
#208=DIRECTION('',(1.0,-4.44089209850063E-016,0.0));
#209=FILL_AREA_STYLE('',(#214));
#210=FILL_AREA_STYLE('',(#215));
#211=FILL_AREA_STYLE('',(#216));
#212=FILL_AREA_STYLE('',(#217));
#213=FILL_AREA_STYLE('',(#218));
#214=FILL_AREA_STYLE_COLOUR('',#219);
#215=FILL_AREA_STYLE_COLOUR('',#220);
#216=FILL_AREA_STYLE_COLOUR('',#221);
#217=FILL_AREA_STYLE_COLOUR('',#222);
#218=FILL_AREA_STYLE_COLOUR('',#223);
#219=COLOUR_RGB('',0.800000011920929,0.800000011920929,0.800000011920929);
#220=COLOUR_RGB('',0.800000011920929,0.800000011920929,0.800000011920929);
#221=COLOUR_RGB('',0.800000011920929,0.800000011920929,0.800000011920929);
#222=COLOUR_RGB('',0.800000011920929,0.800000011920929,0.800000011920929);
#223=COLOUR_RGB('',0.800000011920929,0.800000011920929,0.800000011920929);
#224=AXIS2_PLACEMENT_3D('PCS',#225,#226,#227);
#225=CARTESIAN_POINT('',(0.0,0.0,0.0));
#226=DIRECTION('',(0.0,0.0,1.0));
#227=DIRECTION('',(1.0,0.0,0.0));
#228=AXIS2_PLACEMENT_3D('MCS',#229,#230,#231);
#229=CARTESIAN_POINT('',(6.0,6.0,0.0));
#230=DIRECTION('',(0.0,0.0,1.0));
#231=DIRECTION('',(1.0,0.0,0.0));
#232=CONSTRUCTIVE_GEOMETRY_REPRESENTATION_RELATIONSHIP('coordinate systems',$,#29,#233);
#233=CONSTRUCTIVE_GEOMETRY_REPRESENTATION('coordinate systems',(#224,#228),#6);
ENDSEC;
END-ISO-10303-21;
