ISO-10303-21;
HEADER;
FILE_DESCRIPTION(('no description'),'unknown implementation level');
FILE_NAME('solid1kNAmIL_IYtXPNacNRkysx4RMcg_1.STP','  ',('CIMSOURCE GmbH'),('CADClick - KiM GmbH - www.kimweb.de'),'unknown preprocess','ACIS','unknown authorization');
FILE_SCHEMA(('automotive_design'));
ENDSEC;
DATA;
#1=MECHANICAL_DESIGN_GEOMETRIC_PRESENTATION_REPRESENTATION(' ',(#10,#11,#12,#13,#14,#15,#16,#17,#18,#19,#20,#21,#22,#23,#24),#6);
#2=PRODUCT_DEFINITION_CONTEXT('',#25,'design');
#3=APPLICATION_PROTOCOL_DEFINITION('INTERNATIONAL STANDARD','automotive_design',1994,#25);
#4=PRODUCT_CATEGORY_RELATIONSHIP('NONE','NONE',#26,#27);
#5=SHAPE_DEFINITION_REPRESENTATION(#28,#29);
#6= (GEOMETRIC_REPRESENTATION_CONTEXT(3)GLOBAL_UNCERTAINTY_ASSIGNED_CONTEXT((#32))GLOBAL_UNIT_ASSIGNED_CONTEXT((#34,#35,#36))REPRESENTATION_CONTEXT('NONE','WORKSPACE'));
#10=STYLED_ITEM('',(#38),#39);
#11=STYLED_ITEM('',(#40),#41);
#12=STYLED_ITEM('',(#42),#43);
#13=STYLED_ITEM('',(#44),#45);
#14=STYLED_ITEM('',(#46),#47);
#15=STYLED_ITEM('',(#48),#49);
#16=STYLED_ITEM('',(#50),#51);
#17=STYLED_ITEM('',(#52),#53);
#18=STYLED_ITEM('',(#54),#55);
#19=STYLED_ITEM('',(#56),#57);
#20=STYLED_ITEM('',(#58),#59);
#21=STYLED_ITEM('',(#60),#61);
#22=STYLED_ITEM('',(#62),#63);
#23=STYLED_ITEM('',(#64),#65);
#24=STYLED_ITEM('',(#66),#67);
#25=APPLICATION_CONTEXT(' ');
#26=PRODUCT_CATEGORY('part','NONE');
#27=PRODUCT_RELATED_PRODUCT_CATEGORY('detail',' ',(#68));
#28=PRODUCT_DEFINITION_SHAPE('NONE','NONE',#69);
#29=ADVANCED_BREP_SHAPE_REPRESENTATION('1',(#65,#70),#6);
#32=UNCERTAINTY_MEASURE_WITH_UNIT(LENGTH_MEASURE(1.0E-006),#34,'','');
#34= (CONVERSION_BASED_UNIT('MILLIMETRE',#73)LENGTH_UNIT()NAMED_UNIT(#76));
#35= (NAMED_UNIT(#78)PLANE_ANGLE_UNIT()SI_UNIT($,.RADIAN.));
#36= (NAMED_UNIT(#78)SOLID_ANGLE_UNIT()SI_UNIT($,.STERADIAN.));
#38=PRESENTATION_STYLE_ASSIGNMENT((#84));
#39=EDGE_CURVE('',#49,#45,#85,.T.);
#40=PRESENTATION_STYLE_ASSIGNMENT((#86));
#41=ADVANCED_FACE('',(#87),#88,.T.);
#42=PRESENTATION_STYLE_ASSIGNMENT((#89));
#43=EDGE_CURVE('',#49,#53,#90,.T.);
#44=PRESENTATION_STYLE_ASSIGNMENT((#91));
#45=VERTEX_POINT('',#92);
#46=PRESENTATION_STYLE_ASSIGNMENT((#93));
#47=EDGE_CURVE('',#53,#61,#94,.T.);
#48=PRESENTATION_STYLE_ASSIGNMENT((#95));
#49=VERTEX_POINT('',#96);
#50=PRESENTATION_STYLE_ASSIGNMENT((#97));
#51=ADVANCED_FACE('',(#98),#99,.T.);
#52=PRESENTATION_STYLE_ASSIGNMENT((#100));
#53=VERTEX_POINT('',#101);
#54=PRESENTATION_STYLE_ASSIGNMENT((#102));
#55=EDGE_CURVE('',#61,#53,#103,.T.);
#56=PRESENTATION_STYLE_ASSIGNMENT((#104));
#57=EDGE_CURVE('',#61,#45,#105,.T.);
#58=PRESENTATION_STYLE_ASSIGNMENT((#106));
#59=ADVANCED_FACE('',(#107),#108,.F.);
#60=PRESENTATION_STYLE_ASSIGNMENT((#109));
#61=VERTEX_POINT('',#110);
#62=PRESENTATION_STYLE_ASSIGNMENT((#111));
#63=EDGE_CURVE('',#45,#49,#112,.T.);
#64=PRESENTATION_STYLE_ASSIGNMENT((#113));
#65=MANIFOLD_SOLID_BREP('1',#114);
#66=PRESENTATION_STYLE_ASSIGNMENT((#115));
#67=ADVANCED_FACE('',(#116),#117,.T.);
#68=PRODUCT('1','1','PART-1-DESC',(#118));
#69=PRODUCT_DEFINITION('NONE','NONE',#119,#2);
#70=AXIS2_PLACEMENT_3D('',#120,#121,#122);
#73=LENGTH_MEASURE_WITH_UNIT(LENGTH_MEASURE(1.0),#123);
#76=DIMENSIONAL_EXPONENTS(1.0,0.0,0.0,0.0,0.0,0.0,0.0);
#78=DIMENSIONAL_EXPONENTS(0.0,0.0,0.0,0.0,0.0,0.0,0.0);
#84=CURVE_STYLE('',#124,POSITIVE_LENGTH_MEASURE(1.0E-006),#125);
#85=CIRCLE('',#126,6.91924548119429);
#86=SURFACE_STYLE_USAGE(.BOTH.,#127);
#87=FACE_OUTER_BOUND('',#128,.T.);
#88=CONICAL_SURFACE('',#129,8.0,0.191986217719376);
#89=CURVE_STYLE('',#130,POSITIVE_LENGTH_MEASURE(1.0E-006),#131);
#90=LINE('',#132,#133);
#91=POINT_STYLE(' ',#134,POSITIVE_LENGTH_MEASURE(1.0E-006),#135);
#92=CARTESIAN_POINT('',(14.9192454811943,8.0,-5.56));
#93=CURVE_STYLE('',#136,POSITIVE_LENGTH_MEASURE(1.0E-006),#137);
#94=CIRCLE('',#138,8.0);
#95=POINT_STYLE(' ',#139,POSITIVE_LENGTH_MEASURE(1.0E-006),#140);
#96=CARTESIAN_POINT('',(1.08075451880571,8.0,-5.56));
#97=SURFACE_STYLE_USAGE(.BOTH.,#141);
#98=FACE_OUTER_BOUND('',#142,.T.);
#99=CONICAL_SURFACE('',#143,8.0,0.191986217719376);
#100=POINT_STYLE(' ',#144,POSITIVE_LENGTH_MEASURE(1.0E-006),#145);
#101=CARTESIAN_POINT('',(2.17533787218538E-031,8.00000000000001,0.0));
#102=CURVE_STYLE('',#146,POSITIVE_LENGTH_MEASURE(1.0E-006),#147);
#103=CIRCLE('',#148,8.0);
#104=CURVE_STYLE('',#149,POSITIVE_LENGTH_MEASURE(1.0E-006),#150);
#105=LINE('',#151,#152);
#106=SURFACE_STYLE_USAGE(.BOTH.,#153);
#107=FACE_OUTER_BOUND('',#154,.T.);
#108=PLANE('',#155);
#109=POINT_STYLE(' ',#156,POSITIVE_LENGTH_MEASURE(1.0E-006),#157);
#110=CARTESIAN_POINT('',(16.0,8.0,0.0));
#111=CURVE_STYLE('',#158,POSITIVE_LENGTH_MEASURE(1.0E-006),#159);
#112=CIRCLE('',#160,6.91924548119429);
#113=SURFACE_STYLE_USAGE(.BOTH.,#161);
#114=CLOSED_SHELL('',(#41,#51,#59,#67));
#115=SURFACE_STYLE_USAGE(.BOTH.,#162);
#116=FACE_OUTER_BOUND('',#163,.T.);
#117=PLANE('',#164);
#118=PRODUCT_CONTEXT('',#25,'mechanical');
#119=PRODUCT_DEFINITION_FORMATION_WITH_SPECIFIED_SOURCE(' ','NONE',#68,.NOT_KNOWN.);
#120=CARTESIAN_POINT('',(0.0,0.0,0.0));
#121=DIRECTION('',(0.0,0.0,1.0));
#122=DIRECTION('',(1.0,0.0,0.0));
#123= (NAMED_UNIT(#76)LENGTH_UNIT()SI_UNIT(.MILLI.,.METRE.));
#124=DRAUGHTING_PRE_DEFINED_CURVE_FONT('continuous');
#125=COLOUR_RGB('',0.800000011920929,0.800000011920929,0.800000011920929);
#126=AXIS2_PLACEMENT_3D('',#166,#167,#168);
#127=SURFACE_SIDE_STYLE('',(#169));
#128=EDGE_LOOP('',(#170,#171,#172,#173));
#129=AXIS2_PLACEMENT_3D('',#174,#175,#176);
#130=DRAUGHTING_PRE_DEFINED_CURVE_FONT('continuous');
#131=COLOUR_RGB('',0.800000011920929,0.800000011920929,0.800000011920929);
#132=CARTESIAN_POINT('',(0.0,8.0,0.0));
#133=VECTOR('',#177,1.0);
#134=PRE_DEFINED_MARKER('');
#135=COLOUR_RGB('',0.800000011920929,0.800000011920929,0.800000011920929);
#136=DRAUGHTING_PRE_DEFINED_CURVE_FONT('continuous');
#137=COLOUR_RGB('',0.800000011920929,0.800000011920929,0.800000011920929);
#138=AXIS2_PLACEMENT_3D('',#178,#179,#180);
#139=PRE_DEFINED_MARKER('');
#140=COLOUR_RGB('',0.800000011920929,0.800000011920929,0.800000011920929);
#141=SURFACE_SIDE_STYLE('',(#181));
#142=EDGE_LOOP('',(#182,#183,#184,#185));
#143=AXIS2_PLACEMENT_3D('',#186,#187,#188);
#144=PRE_DEFINED_MARKER('');
#145=COLOUR_RGB('',0.800000011920929,0.800000011920929,0.800000011920929);
#146=DRAUGHTING_PRE_DEFINED_CURVE_FONT('continuous');
#147=COLOUR_RGB('',0.800000011920929,0.800000011920929,0.800000011920929);
#148=AXIS2_PLACEMENT_3D('',#189,#190,#191);
#149=DRAUGHTING_PRE_DEFINED_CURVE_FONT('continuous');
#150=COLOUR_RGB('',0.800000011920929,0.800000011920929,0.800000011920929);
#151=CARTESIAN_POINT('',(16.0,8.0,0.0));
#152=VECTOR('',#192,1.0);
#153=SURFACE_SIDE_STYLE('',(#193));
#154=EDGE_LOOP('',(#194,#195));
#155=AXIS2_PLACEMENT_3D('',#196,#197,#198);
#156=PRE_DEFINED_MARKER('');
#157=COLOUR_RGB('',0.800000011920929,0.800000011920929,0.800000011920929);
#158=DRAUGHTING_PRE_DEFINED_CURVE_FONT('continuous');
#159=COLOUR_RGB('',0.800000011920929,0.800000011920929,0.800000011920929);
#160=AXIS2_PLACEMENT_3D('',#199,#200,#201);
#161=SURFACE_SIDE_STYLE('',(#202));
#162=SURFACE_SIDE_STYLE('',(#203));
#163=EDGE_LOOP('',(#204,#205));
#164=AXIS2_PLACEMENT_3D('',#206,#207,#208);
#166=CARTESIAN_POINT('',(8.0,8.0,-5.56));
#167=DIRECTION('',(0.0,0.0,1.0));
#168=DIRECTION('',(-1.0,3.33066907387547E-016,0.0));
#169=SURFACE_STYLE_FILL_AREA(#209);
#170=ORIENTED_EDGE('',*,*,#57,.F.);
#171=ORIENTED_EDGE('',*,*,#47,.F.);
#172=ORIENTED_EDGE('',*,*,#43,.F.);
#173=ORIENTED_EDGE('',*,*,#39,.T.);
#174=CARTESIAN_POINT('',(8.0,8.0,0.0));
#175=DIRECTION('',(-0.0,-0.0,1.0));
#176=DIRECTION('',(1.0,-2.22044604925031E-016,0.0));
#177=DIRECTION('',(-0.190808995376545,-0.0,0.981627183447664));
#178=CARTESIAN_POINT('',(8.0,8.0,0.0));
#179=DIRECTION('',(0.0,0.0,1.0));
#180=DIRECTION('',(1.0,-2.22044604925031E-016,0.0));
#181=SURFACE_STYLE_FILL_AREA(#210);
#182=ORIENTED_EDGE('',*,*,#57,.T.);
#183=ORIENTED_EDGE('',*,*,#63,.T.);
#184=ORIENTED_EDGE('',*,*,#43,.T.);
#185=ORIENTED_EDGE('',*,*,#55,.F.);
#186=CARTESIAN_POINT('',(8.0,8.0,0.0));
#187=DIRECTION('',(-0.0,-0.0,1.0));
#188=DIRECTION('',(1.0,-2.22044604925031E-016,0.0));
#189=CARTESIAN_POINT('',(8.0,8.0,0.0));
#190=DIRECTION('',(0.0,0.0,1.0));
#191=DIRECTION('',(1.0,-2.22044604925031E-016,0.0));
#192=DIRECTION('',(-0.190808995376545,0.0,-0.981627183447664));
#193=SURFACE_STYLE_FILL_AREA(#211);
#194=ORIENTED_EDGE('',*,*,#63,.F.);
#195=ORIENTED_EDGE('',*,*,#39,.F.);
#196=CARTESIAN_POINT('',(8.0,8.0,-5.56));
#197=DIRECTION('',(0.0,0.0,1.0));
#198=DIRECTION('',(1.0,0.0,0.0));
#199=CARTESIAN_POINT('',(8.0,8.0,-5.56));
#200=DIRECTION('',(0.0,0.0,1.0));
#201=DIRECTION('',(-1.0,3.33066907387547E-016,0.0));
#202=SURFACE_STYLE_FILL_AREA(#212);
#203=SURFACE_STYLE_FILL_AREA(#213);
#204=ORIENTED_EDGE('',*,*,#47,.T.);
#205=ORIENTED_EDGE('',*,*,#55,.T.);
#206=CARTESIAN_POINT('',(8.0,8.0,0.0));
#207=DIRECTION('',(0.0,0.0,1.0));
#208=DIRECTION('',(1.0,0.0,0.0));
#209=FILL_AREA_STYLE('',(#214));
#210=FILL_AREA_STYLE('',(#215));
#211=FILL_AREA_STYLE('',(#216));
#212=FILL_AREA_STYLE('',(#217));
#213=FILL_AREA_STYLE('',(#218));
#214=FILL_AREA_STYLE_COLOUR('',#219);
#215=FILL_AREA_STYLE_COLOUR('',#220);
#216=FILL_AREA_STYLE_COLOUR('',#221);
#217=FILL_AREA_STYLE_COLOUR('',#222);
#218=FILL_AREA_STYLE_COLOUR('',#223);
#219=COLOUR_RGB('',0.800000011920929,0.800000011920929,0.800000011920929);
#220=COLOUR_RGB('',0.800000011920929,0.800000011920929,0.800000011920929);
#221=COLOUR_RGB('',0.800000011920929,0.800000011920929,0.800000011920929);
#222=COLOUR_RGB('',0.800000011920929,0.800000011920929,0.800000011920929);
#223=COLOUR_RGB('',0.800000011920929,0.800000011920929,0.800000011920929);
#224=AXIS2_PLACEMENT_3D('PCS',#225,#226,#227);
#225=CARTESIAN_POINT('',(0.0,0.0,0.0));
#226=DIRECTION('',(0.0,0.0,1.0));
#227=DIRECTION('',(1.0,0.0,0.0));
#228=AXIS2_PLACEMENT_3D('MCS',#229,#230,#231);
#229=CARTESIAN_POINT('',(8.0,8.0,0.0));
#230=DIRECTION('',(0.0,0.0,1.0));
#231=DIRECTION('',(1.0,0.0,0.0));
#232=CONSTRUCTIVE_GEOMETRY_REPRESENTATION_RELATIONSHIP('coordinate systems',$,#29,#233);
#233=CONSTRUCTIVE_GEOMETRY_REPRESENTATION('coordinate systems',(#224,#228),#6);
ENDSEC;
END-ISO-10303-21;
