ISO-10303-21;
HEADER;
FILE_DESCRIPTION(('no description'),'unknown implementation level');
FILE_NAME('solidxZkzelGt1GOGAH5W2qgOvEt4bio_1.STP','  ',('CIMSOURCE GmbH'),('CADClick - KiM GmbH - www.kimweb.de'),'unknown preprocess','ACIS','unknown authorization');
FILE_SCHEMA(('automotive_design'));
ENDSEC;
DATA;
#1=MECHANICAL_DESIGN_GEOMETRIC_PRESENTATION_REPRESENTATION(' ',(#10,#11,#12,#13,#14,#15,#16,#17,#18,#19,#20,#21,#22,#23,#24),#6);
#2=PRODUCT_DEFINITION_CONTEXT('',#25,'design');
#3=APPLICATION_PROTOCOL_DEFINITION('INTERNATIONAL STANDARD','automotive_design',1994,#25);
#4=PRODUCT_CATEGORY_RELATIONSHIP('NONE','NONE',#26,#27);
#5=SHAPE_DEFINITION_REPRESENTATION(#28,#29);
#6= (GEOMETRIC_REPRESENTATION_CONTEXT(3)GLOBAL_UNCERTAINTY_ASSIGNED_CONTEXT((#32))GLOBAL_UNIT_ASSIGNED_CONTEXT((#34,#35,#36))REPRESENTATION_CONTEXT('NONE','WORKSPACE'));
#10=STYLED_ITEM('',(#38),#39);
#11=STYLED_ITEM('',(#40),#41);
#12=STYLED_ITEM('',(#42),#43);
#13=STYLED_ITEM('',(#44),#45);
#14=STYLED_ITEM('',(#46),#47);
#15=STYLED_ITEM('',(#48),#49);
#16=STYLED_ITEM('',(#50),#51);
#17=STYLED_ITEM('',(#52),#53);
#18=STYLED_ITEM('',(#54),#55);
#19=STYLED_ITEM('',(#56),#57);
#20=STYLED_ITEM('',(#58),#59);
#21=STYLED_ITEM('',(#60),#61);
#22=STYLED_ITEM('',(#62),#63);
#23=STYLED_ITEM('',(#64),#65);
#24=STYLED_ITEM('',(#66),#67);
#25=APPLICATION_CONTEXT(' ');
#26=PRODUCT_CATEGORY('part','NONE');
#27=PRODUCT_RELATED_PRODUCT_CATEGORY('detail',' ',(#68));
#28=PRODUCT_DEFINITION_SHAPE('NONE','NONE',#69);
#29=ADVANCED_BREP_SHAPE_REPRESENTATION('1',(#59,#70),#6);
#32=UNCERTAINTY_MEASURE_WITH_UNIT(LENGTH_MEASURE(1.0E-006),#34,'','');
#34= (CONVERSION_BASED_UNIT('MILLIMETRE',#73)LENGTH_UNIT()NAMED_UNIT(#76));
#35= (NAMED_UNIT(#78)PLANE_ANGLE_UNIT()SI_UNIT($,.RADIAN.));
#36= (NAMED_UNIT(#78)SOLID_ANGLE_UNIT()SI_UNIT($,.STERADIAN.));
#38=PRESENTATION_STYLE_ASSIGNMENT((#84));
#39=ADVANCED_FACE('',(#85),#86,.T.);
#40=PRESENTATION_STYLE_ASSIGNMENT((#87));
#41=EDGE_CURVE('',#55,#57,#88,.T.);
#42=PRESENTATION_STYLE_ASSIGNMENT((#89));
#43=VERTEX_POINT('',#90);
#44=PRESENTATION_STYLE_ASSIGNMENT((#91));
#45=ADVANCED_FACE('',(#92),#93,.F.);
#46=PRESENTATION_STYLE_ASSIGNMENT((#94));
#47=ADVANCED_FACE('',(#95),#96,.T.);
#48=PRESENTATION_STYLE_ASSIGNMENT((#97));
#49=EDGE_CURVE('',#57,#55,#98,.T.);
#50=PRESENTATION_STYLE_ASSIGNMENT((#99));
#51=EDGE_CURVE('',#61,#55,#100,.T.);
#52=PRESENTATION_STYLE_ASSIGNMENT((#101));
#53=EDGE_CURVE('',#61,#43,#102,.T.);
#54=PRESENTATION_STYLE_ASSIGNMENT((#103));
#55=VERTEX_POINT('',#104);
#56=PRESENTATION_STYLE_ASSIGNMENT((#105));
#57=VERTEX_POINT('',#106);
#58=PRESENTATION_STYLE_ASSIGNMENT((#107));
#59=MANIFOLD_SOLID_BREP('1',#108);
#60=PRESENTATION_STYLE_ASSIGNMENT((#109));
#61=VERTEX_POINT('',#110);
#62=PRESENTATION_STYLE_ASSIGNMENT((#111));
#63=EDGE_CURVE('',#57,#43,#112,.T.);
#64=PRESENTATION_STYLE_ASSIGNMENT((#113));
#65=ADVANCED_FACE('',(#114),#115,.T.);
#66=PRESENTATION_STYLE_ASSIGNMENT((#116));
#67=EDGE_CURVE('',#43,#61,#117,.T.);
#68=PRODUCT('1','1','PART-1-DESC',(#118));
#69=PRODUCT_DEFINITION('NONE','NONE',#119,#2);
#70=AXIS2_PLACEMENT_3D('',#120,#121,#122);
#73=LENGTH_MEASURE_WITH_UNIT(LENGTH_MEASURE(1.0),#123);
#76=DIMENSIONAL_EXPONENTS(1.0,0.0,0.0,0.0,0.0,0.0,0.0);
#78=DIMENSIONAL_EXPONENTS(0.0,0.0,0.0,0.0,0.0,0.0,0.0);
#84=SURFACE_STYLE_USAGE(.BOTH.,#124);
#85=FACE_OUTER_BOUND('',#125,.T.);
#86=PLANE('',#126);
#87=CURVE_STYLE('',#127,POSITIVE_LENGTH_MEASURE(1.0E-006),#128);
#88=CIRCLE('',#129,4.22831017272326);
#89=POINT_STYLE(' ',#130,POSITIVE_LENGTH_MEASURE(1.0E-006),#131);
#90=CARTESIAN_POINT('',(0.0,5.0,0.0));
#91=SURFACE_STYLE_USAGE(.BOTH.,#132);
#92=FACE_OUTER_BOUND('',#133,.T.);
#93=PLANE('',#134);
#94=SURFACE_STYLE_USAGE(.BOTH.,#135);
#95=FACE_OUTER_BOUND('',#136,.T.);
#96=CONICAL_SURFACE('',#137,5.0,0.191986217719376);
#97=CURVE_STYLE('',#138,POSITIVE_LENGTH_MEASURE(1.0E-006),#139);
#98=CIRCLE('',#140,4.22831017272326);
#99=CURVE_STYLE('',#141,POSITIVE_LENGTH_MEASURE(1.0E-006),#142);
#100=LINE('',#143,#144);
#101=CURVE_STYLE('',#145,POSITIVE_LENGTH_MEASURE(1.0E-006),#146);
#102=CIRCLE('',#147,5.0);
#103=POINT_STYLE(' ',#148,POSITIVE_LENGTH_MEASURE(1.0E-006),#149);
#104=CARTESIAN_POINT('',(9.22831017272326,5.0,-3.97));
#105=POINT_STYLE(' ',#150,POSITIVE_LENGTH_MEASURE(1.0E-006),#151);
#106=CARTESIAN_POINT('',(0.771689827276743,5.0,-3.97));
#107=SURFACE_STYLE_USAGE(.BOTH.,#152);
#108=CLOSED_SHELL('',(#65,#47,#45,#39));
#109=POINT_STYLE(' ',#153,POSITIVE_LENGTH_MEASURE(1.0E-006),#154);
#110=CARTESIAN_POINT('',(10.0,5.0,0.0));
#111=CURVE_STYLE('',#155,POSITIVE_LENGTH_MEASURE(1.0E-006),#156);
#112=LINE('',#157,#158);
#113=SURFACE_STYLE_USAGE(.BOTH.,#159);
#114=FACE_OUTER_BOUND('',#160,.T.);
#115=CONICAL_SURFACE('',#161,5.0,0.191986217719376);
#116=CURVE_STYLE('',#162,POSITIVE_LENGTH_MEASURE(1.0E-006),#163);
#117=CIRCLE('',#164,5.0);
#118=PRODUCT_CONTEXT('',#25,'mechanical');
#119=PRODUCT_DEFINITION_FORMATION_WITH_SPECIFIED_SOURCE(' ','NONE',#68,.NOT_KNOWN.);
#120=CARTESIAN_POINT('',(0.0,0.0,0.0));
#121=DIRECTION('',(0.0,0.0,1.0));
#122=DIRECTION('',(1.0,0.0,0.0));
#123= (NAMED_UNIT(#76)LENGTH_UNIT()SI_UNIT(.MILLI.,.METRE.));
#124=SURFACE_SIDE_STYLE('',(#166));
#125=EDGE_LOOP('',(#167,#168));
#126=AXIS2_PLACEMENT_3D('',#169,#170,#171);
#127=DRAUGHTING_PRE_DEFINED_CURVE_FONT('continuous');
#128=COLOUR_RGB('',0.800000011920929,0.800000011920929,0.800000011920929);
#129=AXIS2_PLACEMENT_3D('',#172,#173,#174);
#130=PRE_DEFINED_MARKER('');
#131=COLOUR_RGB('',0.800000011920929,0.800000011920929,0.800000011920929);
#132=SURFACE_SIDE_STYLE('',(#175));
#133=EDGE_LOOP('',(#176,#177));
#134=AXIS2_PLACEMENT_3D('',#178,#179,#180);
#135=SURFACE_SIDE_STYLE('',(#181));
#136=EDGE_LOOP('',(#182,#183,#184,#185));
#137=AXIS2_PLACEMENT_3D('',#186,#187,#188);
#138=DRAUGHTING_PRE_DEFINED_CURVE_FONT('continuous');
#139=COLOUR_RGB('',0.800000011920929,0.800000011920929,0.800000011920929);
#140=AXIS2_PLACEMENT_3D('',#189,#190,#191);
#141=DRAUGHTING_PRE_DEFINED_CURVE_FONT('continuous');
#142=COLOUR_RGB('',0.800000011920929,0.800000011920929,0.800000011920929);
#143=CARTESIAN_POINT('',(10.0,5.0,0.0));
#144=VECTOR('',#192,1.0);
#145=DRAUGHTING_PRE_DEFINED_CURVE_FONT('continuous');
#146=COLOUR_RGB('',0.800000011920929,0.800000011920929,0.800000011920929);
#147=AXIS2_PLACEMENT_3D('',#193,#194,#195);
#148=PRE_DEFINED_MARKER('');
#149=COLOUR_RGB('',0.800000011920929,0.800000011920929,0.800000011920929);
#150=PRE_DEFINED_MARKER('');
#151=COLOUR_RGB('',0.800000011920929,0.800000011920929,0.800000011920929);
#152=SURFACE_SIDE_STYLE('',(#196));
#153=PRE_DEFINED_MARKER('');
#154=COLOUR_RGB('',0.800000011920929,0.800000011920929,0.800000011920929);
#155=DRAUGHTING_PRE_DEFINED_CURVE_FONT('continuous');
#156=COLOUR_RGB('',0.800000011920929,0.800000011920929,0.800000011920929);
#157=CARTESIAN_POINT('',(8.88178419700125E-016,5.0,0.0));
#158=VECTOR('',#197,1.0);
#159=SURFACE_SIDE_STYLE('',(#198));
#160=EDGE_LOOP('',(#199,#200,#201,#202));
#161=AXIS2_PLACEMENT_3D('',#203,#204,#205);
#162=DRAUGHTING_PRE_DEFINED_CURVE_FONT('continuous');
#163=COLOUR_RGB('',0.800000011920929,0.800000011920929,0.800000011920929);
#164=AXIS2_PLACEMENT_3D('',#206,#207,#208);
#166=SURFACE_STYLE_FILL_AREA(#209);
#167=ORIENTED_EDGE('',*,*,#67,.T.);
#168=ORIENTED_EDGE('',*,*,#53,.T.);
#169=CARTESIAN_POINT('',(5.0,5.0,0.0));
#170=DIRECTION('',(0.0,0.0,1.0));
#171=DIRECTION('',(1.0,0.0,0.0));
#172=CARTESIAN_POINT('',(5.0,5.0,-3.97));
#173=DIRECTION('',(0.0,0.0,1.0));
#174=DIRECTION('',(-1.0,5.32907051820075E-016,0.0));
#175=SURFACE_STYLE_FILL_AREA(#210);
#176=ORIENTED_EDGE('',*,*,#41,.F.);
#177=ORIENTED_EDGE('',*,*,#49,.F.);
#178=CARTESIAN_POINT('',(5.0,5.0,-3.97));
#179=DIRECTION('',(0.0,0.0,1.0));
#180=DIRECTION('',(1.0,0.0,0.0));
#181=SURFACE_STYLE_FILL_AREA(#211);
#182=ORIENTED_EDGE('',*,*,#51,.T.);
#183=ORIENTED_EDGE('',*,*,#41,.T.);
#184=ORIENTED_EDGE('',*,*,#63,.T.);
#185=ORIENTED_EDGE('',*,*,#53,.F.);
#186=CARTESIAN_POINT('',(5.0,5.0,0.0));
#187=DIRECTION('',(-0.0,-0.0,1.0));
#188=DIRECTION('',(1.0,0.0,0.0));
#189=CARTESIAN_POINT('',(5.0,5.0,-3.97));
#190=DIRECTION('',(0.0,0.0,1.0));
#191=DIRECTION('',(-1.0,5.32907051820075E-016,0.0));
#192=DIRECTION('',(-0.190808995376545,-3.38944863956216E-017,-0.981627183447664));
#193=CARTESIAN_POINT('',(5.0,5.0,0.0));
#194=DIRECTION('',(0.0,0.0,1.0));
#195=DIRECTION('',(1.0,0.0,0.0));
#196=SURFACE_STYLE_FILL_AREA(#212);
#197=DIRECTION('',(-0.190808995376545,-3.38944863956216E-017,0.981627183447664));
#198=SURFACE_STYLE_FILL_AREA(#213);
#199=ORIENTED_EDGE('',*,*,#51,.F.);
#200=ORIENTED_EDGE('',*,*,#67,.F.);
#201=ORIENTED_EDGE('',*,*,#63,.F.);
#202=ORIENTED_EDGE('',*,*,#49,.T.);
#203=CARTESIAN_POINT('',(5.0,5.0,0.0));
#204=DIRECTION('',(-0.0,-0.0,1.0));
#205=DIRECTION('',(1.0,0.0,0.0));
#206=CARTESIAN_POINT('',(5.0,5.0,0.0));
#207=DIRECTION('',(0.0,0.0,1.0));
#208=DIRECTION('',(1.0,0.0,0.0));
#209=FILL_AREA_STYLE('',(#214));
#210=FILL_AREA_STYLE('',(#215));
#211=FILL_AREA_STYLE('',(#216));
#212=FILL_AREA_STYLE('',(#217));
#213=FILL_AREA_STYLE('',(#218));
#214=FILL_AREA_STYLE_COLOUR('',#219);
#215=FILL_AREA_STYLE_COLOUR('',#220);
#216=FILL_AREA_STYLE_COLOUR('',#221);
#217=FILL_AREA_STYLE_COLOUR('',#222);
#218=FILL_AREA_STYLE_COLOUR('',#223);
#219=COLOUR_RGB('',0.800000011920929,0.800000011920929,0.800000011920929);
#220=COLOUR_RGB('',0.800000011920929,0.800000011920929,0.800000011920929);
#221=COLOUR_RGB('',0.800000011920929,0.800000011920929,0.800000011920929);
#222=COLOUR_RGB('',0.800000011920929,0.800000011920929,0.800000011920929);
#223=COLOUR_RGB('',0.800000011920929,0.800000011920929,0.800000011920929);
#224=AXIS2_PLACEMENT_3D('PCS',#225,#226,#227);
#225=CARTESIAN_POINT('',(0.0,0.0,0.0));
#226=DIRECTION('',(0.0,0.0,1.0));
#227=DIRECTION('',(1.0,0.0,0.0));
#228=AXIS2_PLACEMENT_3D('MCS',#229,#230,#231);
#229=CARTESIAN_POINT('',(5.0,5.0,0.0));
#230=DIRECTION('',(0.0,0.0,1.0));
#231=DIRECTION('',(1.0,0.0,0.0));
#232=CONSTRUCTIVE_GEOMETRY_REPRESENTATION_RELATIONSHIP('coordinate systems',$,#29,#233);
#233=CONSTRUCTIVE_GEOMETRY_REPRESENTATION('coordinate systems',(#224,#228),#6);
ENDSEC;
END-ISO-10303-21;
