ISO-10303-21;
HEADER;
FILE_DESCRIPTION(('no description'),'unknown implementation level');
FILE_NAME('solidKkdzxWlXPynlwPbwKznaSN1gmuU_1.STP','  ',('CIMSOURCE GmbH'),('CADClick - KiM GmbH - www.kimweb.de'),'unknown preprocess','ACIS','unknown authorization');
FILE_SCHEMA(('automotive_design'));
ENDSEC;
DATA;
#1=MECHANICAL_DESIGN_GEOMETRIC_PRESENTATION_REPRESENTATION(' ',(#10,#11,#12,#13,#14,#15,#16,#17,#18,#19,#20,#21,#22,#23,#24,#25,#26,#27,#28,#29,#30,#31,#32,#33,#34,#35,#36,#37,#38,#39,#40,#41,#42,#43,#44,#45,#46,#47,#48,#49,#50,#51,#52,#53,#54,#55,#56,#57,#58,#59,#60),#6);
#2=PRODUCT_DEFINITION_CONTEXT('',#61,'design');
#3=APPLICATION_PROTOCOL_DEFINITION('INTERNATIONAL STANDARD','automotive_design',1994,#61);
#4=PRODUCT_CATEGORY_RELATIONSHIP('NONE','NONE',#62,#63);
#5=SHAPE_DEFINITION_REPRESENTATION(#64,#65);
#6= (GEOMETRIC_REPRESENTATION_CONTEXT(3)GLOBAL_UNCERTAINTY_ASSIGNED_CONTEXT((#68))GLOBAL_UNIT_ASSIGNED_CONTEXT((#70,#71,#72))REPRESENTATION_CONTEXT('NONE','WORKSPACE'));
#10=STYLED_ITEM('',(#74),#75);
#11=STYLED_ITEM('',(#76),#77);
#12=STYLED_ITEM('',(#78),#79);
#13=STYLED_ITEM('',(#80),#81);
#14=STYLED_ITEM('',(#82),#83);
#15=STYLED_ITEM('',(#84),#85);
#16=STYLED_ITEM('',(#86),#87);
#17=STYLED_ITEM('',(#88),#89);
#18=STYLED_ITEM('',(#90),#91);
#19=STYLED_ITEM('',(#92),#93);
#20=STYLED_ITEM('',(#94),#95);
#21=STYLED_ITEM('',(#96),#97);
#22=STYLED_ITEM('',(#98),#99);
#23=STYLED_ITEM('',(#100),#101);
#24=STYLED_ITEM('',(#102),#103);
#25=STYLED_ITEM('',(#104),#105);
#26=STYLED_ITEM('',(#106),#107);
#27=STYLED_ITEM('',(#108),#109);
#28=STYLED_ITEM('',(#110),#111);
#29=STYLED_ITEM('',(#112),#113);
#30=STYLED_ITEM('',(#114),#115);
#31=STYLED_ITEM('',(#116),#117);
#32=STYLED_ITEM('',(#118),#119);
#33=STYLED_ITEM('',(#120),#121);
#34=STYLED_ITEM('',(#122),#123);
#35=STYLED_ITEM('',(#124),#125);
#36=STYLED_ITEM('',(#126),#127);
#37=STYLED_ITEM('',(#128),#129);
#38=STYLED_ITEM('',(#130),#131);
#39=STYLED_ITEM('',(#132),#133);
#40=STYLED_ITEM('',(#134),#135);
#41=STYLED_ITEM('',(#136),#137);
#42=STYLED_ITEM('',(#138),#139);
#43=STYLED_ITEM('',(#140),#141);
#44=STYLED_ITEM('',(#142),#143);
#45=STYLED_ITEM('',(#144),#145);
#46=STYLED_ITEM('',(#146),#147);
#47=STYLED_ITEM('',(#148),#149);
#48=STYLED_ITEM('',(#150),#151);
#49=STYLED_ITEM('',(#152),#153);
#50=STYLED_ITEM('',(#154),#155);
#51=STYLED_ITEM('',(#156),#157);
#52=STYLED_ITEM('',(#158),#159);
#53=STYLED_ITEM('',(#160),#161);
#54=STYLED_ITEM('',(#162),#163);
#55=STYLED_ITEM('',(#164),#165);
#56=STYLED_ITEM('',(#166),#167);
#57=STYLED_ITEM('',(#168),#169);
#58=STYLED_ITEM('',(#170),#171);
#59=STYLED_ITEM('',(#172),#173);
#60=STYLED_ITEM('',(#174),#175);
#61=APPLICATION_CONTEXT(' ');
#62=PRODUCT_CATEGORY('part','NONE');
#63=PRODUCT_RELATED_PRODUCT_CATEGORY('detail',' ',(#176));
#64=PRODUCT_DEFINITION_SHAPE('NONE','NONE',#177);
#65=ADVANCED_BREP_SHAPE_REPRESENTATION('1',(#153,#178),#6);
#68=UNCERTAINTY_MEASURE_WITH_UNIT(LENGTH_MEASURE(1.0E-006),#70,'','');
#70= (CONVERSION_BASED_UNIT('MILLIMETRE',#181)LENGTH_UNIT()NAMED_UNIT(#184));
#71= (NAMED_UNIT(#186)PLANE_ANGLE_UNIT()SI_UNIT($,.RADIAN.));
#72= (NAMED_UNIT(#186)SOLID_ANGLE_UNIT()SI_UNIT($,.STERADIAN.));
#74=PRESENTATION_STYLE_ASSIGNMENT((#192));
#75=EDGE_CURVE('',#141,#101,#193,.T.);
#76=PRESENTATION_STYLE_ASSIGNMENT((#194));
#77=VERTEX_POINT('',#195);
#78=PRESENTATION_STYLE_ASSIGNMENT((#196));
#79=EDGE_CURVE('',#139,#127,#197,.T.);
#80=PRESENTATION_STYLE_ASSIGNMENT((#198));
#81=ADVANCED_FACE('',(#199),#200,.T.);
#82=PRESENTATION_STYLE_ASSIGNMENT((#201));
#83=ADVANCED_FACE('',(#202),#203,.T.);
#84=PRESENTATION_STYLE_ASSIGNMENT((#204));
#85=EDGE_CURVE('',#155,#133,#205,.T.);
#86=PRESENTATION_STYLE_ASSIGNMENT((#206));
#87=EDGE_CURVE('',#147,#167,#207,.T.);
#88=PRESENTATION_STYLE_ASSIGNMENT((#208));
#89=VERTEX_POINT('',#209);
#90=PRESENTATION_STYLE_ASSIGNMENT((#210));
#91=ADVANCED_FACE('',(#211),#212,.T.);
#92=PRESENTATION_STYLE_ASSIGNMENT((#213));
#93=ADVANCED_FACE('',(#214),#215,.T.);
#94=PRESENTATION_STYLE_ASSIGNMENT((#216));
#95=EDGE_CURVE('',#129,#143,#217,.T.);
#96=PRESENTATION_STYLE_ASSIGNMENT((#218));
#97=EDGE_CURVE('',#133,#103,#219,.T.);
#98=PRESENTATION_STYLE_ASSIGNMENT((#220));
#99=EDGE_CURVE('',#147,#141,#221,.T.);
#100=PRESENTATION_STYLE_ASSIGNMENT((#222));
#101=VERTEX_POINT('',#223);
#102=PRESENTATION_STYLE_ASSIGNMENT((#224));
#103=VERTEX_POINT('',#225);
#104=PRESENTATION_STYLE_ASSIGNMENT((#226));
#105=EDGE_CURVE('',#125,#103,#227,.T.);
#106=PRESENTATION_STYLE_ASSIGNMENT((#228));
#107=EDGE_CURVE('',#101,#117,#229,.T.);
#108=PRESENTATION_STYLE_ASSIGNMENT((#230));
#109=EDGE_CURVE('',#125,#139,#231,.T.);
#110=PRESENTATION_STYLE_ASSIGNMENT((#232));
#111=EDGE_CURVE('',#77,#143,#233,.T.);
#112=PRESENTATION_STYLE_ASSIGNMENT((#234));
#113=ADVANCED_FACE('',(#235),#236,.T.);
#114=PRESENTATION_STYLE_ASSIGNMENT((#237));
#115=EDGE_CURVE('',#139,#147,#238,.T.);
#116=PRESENTATION_STYLE_ASSIGNMENT((#239));
#117=VERTEX_POINT('',#240);
#118=PRESENTATION_STYLE_ASSIGNMENT((#241));
#119=EDGE_CURVE('',#167,#89,#242,.T.);
#120=PRESENTATION_STYLE_ASSIGNMENT((#243));
#121=VERTEX_POINT('',#244);
#122=PRESENTATION_STYLE_ASSIGNMENT((#245));
#123=EDGE_CURVE('',#121,#129,#246,.T.);
#124=PRESENTATION_STYLE_ASSIGNMENT((#247));
#125=VERTEX_POINT('',#248);
#126=PRESENTATION_STYLE_ASSIGNMENT((#249));
#127=VERTEX_POINT('',#250);
#128=PRESENTATION_STYLE_ASSIGNMENT((#251));
#129=VERTEX_POINT('',#252);
#130=PRESENTATION_STYLE_ASSIGNMENT((#253));
#131=ADVANCED_FACE('',(#254),#255,.T.);
#132=PRESENTATION_STYLE_ASSIGNMENT((#256));
#133=VERTEX_POINT('',#257);
#134=PRESENTATION_STYLE_ASSIGNMENT((#258));
#135=EDGE_CURVE('',#143,#133,#259,.T.);
#136=PRESENTATION_STYLE_ASSIGNMENT((#260));
#137=EDGE_CURVE('',#155,#125,#261,.T.);
#138=PRESENTATION_STYLE_ASSIGNMENT((#262));
#139=VERTEX_POINT('',#263);
#140=PRESENTATION_STYLE_ASSIGNMENT((#264));
#141=VERTEX_POINT('',#265);
#142=PRESENTATION_STYLE_ASSIGNMENT((#266));
#143=VERTEX_POINT('',#267);
#144=PRESENTATION_STYLE_ASSIGNMENT((#268));
#145=ADVANCED_FACE('',(#269),#270,.T.);
#146=PRESENTATION_STYLE_ASSIGNMENT((#271));
#147=VERTEX_POINT('',#272);
#148=PRESENTATION_STYLE_ASSIGNMENT((#273));
#149=EDGE_CURVE('',#89,#121,#274,.T.);
#150=PRESENTATION_STYLE_ASSIGNMENT((#275));
#151=ADVANCED_FACE('',(#276),#277,.T.);
#152=PRESENTATION_STYLE_ASSIGNMENT((#278));
#153=MANIFOLD_SOLID_BREP('1',#279);
#154=PRESENTATION_STYLE_ASSIGNMENT((#280));
#155=VERTEX_POINT('',#281);
#156=PRESENTATION_STYLE_ASSIGNMENT((#282));
#157=ADVANCED_FACE('',(#283),#284,.T.);
#158=PRESENTATION_STYLE_ASSIGNMENT((#285));
#159=ADVANCED_FACE('',(#286),#287,.F.);
#160=PRESENTATION_STYLE_ASSIGNMENT((#288));
#161=EDGE_CURVE('',#129,#155,#289,.T.);
#162=PRESENTATION_STYLE_ASSIGNMENT((#290));
#163=EDGE_CURVE('',#103,#127,#291,.T.);
#164=PRESENTATION_STYLE_ASSIGNMENT((#292));
#165=EDGE_CURVE('',#127,#141,#293,.T.);
#166=PRESENTATION_STYLE_ASSIGNMENT((#294));
#167=VERTEX_POINT('',#295);
#168=PRESENTATION_STYLE_ASSIGNMENT((#296));
#169=EDGE_CURVE('',#89,#117,#297,.T.);
#170=PRESENTATION_STYLE_ASSIGNMENT((#298));
#171=EDGE_CURVE('',#121,#77,#299,.T.);
#172=PRESENTATION_STYLE_ASSIGNMENT((#300));
#173=EDGE_CURVE('',#167,#101,#301,.T.);
#174=PRESENTATION_STYLE_ASSIGNMENT((#302));
#175=EDGE_CURVE('',#117,#77,#303,.T.);
#176=PRODUCT('1','1','PART-1-DESC',(#304));
#177=PRODUCT_DEFINITION('NONE','NONE',#305,#2);
#178=AXIS2_PLACEMENT_3D('',#306,#307,#308);
#181=LENGTH_MEASURE_WITH_UNIT(LENGTH_MEASURE(1.0),#309);
#184=DIMENSIONAL_EXPONENTS(1.0,0.0,0.0,0.0,0.0,0.0,0.0);
#186=DIMENSIONAL_EXPONENTS(0.0,0.0,0.0,0.0,0.0,0.0,0.0);
#192=CURVE_STYLE('',#310,POSITIVE_LENGTH_MEASURE(1.0E-006),#311);
#193=LINE('',#312,#313);
#194=POINT_STYLE(' ',#314,POSITIVE_LENGTH_MEASURE(1.0E-006),#315);
#195=CARTESIAN_POINT('',(2.58094233227323,0.0,-7.18));
#196=CURVE_STYLE('',#316,POSITIVE_LENGTH_MEASURE(1.0E-006),#317);
#197=LINE('',#318,#319);
#198=SURFACE_STYLE_USAGE(.BOTH.,#320);
#199=FACE_OUTER_BOUND('',#321,.T.);
#200=PLANE('',#322);
#201=SURFACE_STYLE_USAGE(.BOTH.,#323);
#202=FACE_OUTER_BOUND('',#324,.T.);
#203=PLANE('',#325);
#204=CURVE_STYLE('',#326,POSITIVE_LENGTH_MEASURE(1.0E-006),#327);
#205=LINE('',#328,#329);
#206=CURVE_STYLE('',#330,POSITIVE_LENGTH_MEASURE(1.0E-006),#331);
#207=LINE('',#332,#333);
#208=POINT_STYLE(' ',#334,POSITIVE_LENGTH_MEASURE(1.0E-006),#335);
#209=CARTESIAN_POINT('',(2.5809423323E-006,2.5809397513309,0.0));
#210=SURFACE_STYLE_USAGE(.BOTH.,#336);
#211=FACE_OUTER_BOUND('',#337,.T.);
#212=PLANE('',#338);
#213=SURFACE_STYLE_USAGE(.BOTH.,#339);
#214=FACE_OUTER_BOUND('',#340,.T.);
#215=PLANE('',#341);
#216=CURVE_STYLE('',#342,POSITIVE_LENGTH_MEASURE(1.0E-006),#343);
#217=LINE('',#344,#345);
#218=CURVE_STYLE('',#346,POSITIVE_LENGTH_MEASURE(1.0E-006),#347);
#219=LINE('',#348,#349);
#220=CURVE_STYLE('',#350,POSITIVE_LENGTH_MEASURE(1.0E-006),#351);
#221=LINE('',#352,#353);
#222=POINT_STYLE(' ',#354,POSITIVE_LENGTH_MEASURE(1.0E-006),#355);
#223=CARTESIAN_POINT('',(-2.58094233229755E-006,13.2990602486691,-7.18));
#224=POINT_STYLE(' ',#356,POSITIVE_LENGTH_MEASURE(1.0E-006),#357);
#225=CARTESIAN_POINT('',(15.8799974190577,13.2990602486691,-7.18));
#226=CURVE_STYLE('',#358,POSITIVE_LENGTH_MEASURE(1.0E-006),#359);
#227=LINE('',#360,#361);
#228=CURVE_STYLE('',#362,POSITIVE_LENGTH_MEASURE(1.0E-006),#363);
#229=LINE('',#364,#365);
#230=CURVE_STYLE('',#366,POSITIVE_LENGTH_MEASURE(1.0E-006),#367);
#231=LINE('',#368,#369);
#232=CURVE_STYLE('',#370,POSITIVE_LENGTH_MEASURE(1.0E-006),#371);
#233=LINE('',#372,#373);
#234=SURFACE_STYLE_USAGE(.BOTH.,#374);
#235=FACE_OUTER_BOUND('',#375,.T.);
#236=PLANE('',#376);
#237=CURVE_STYLE('',#377,POSITIVE_LENGTH_MEASURE(1.0E-006),#378);
#238=LINE('',#379,#380);
#239=POINT_STYLE(' ',#381,POSITIVE_LENGTH_MEASURE(1.0E-006),#382);
#240=CARTESIAN_POINT('',(2.5809423323E-006,2.5809397513309,-7.18));
#241=CURVE_STYLE('',#383,POSITIVE_LENGTH_MEASURE(1.0E-006),#384);
#242=LINE('',#385,#386);
#243=POINT_STYLE(' ',#387,POSITIVE_LENGTH_MEASURE(1.0E-006),#388);
#244=CARTESIAN_POINT('',(2.58094233227323,0.0,0.0));
#245=CURVE_STYLE('',#389,POSITIVE_LENGTH_MEASURE(1.0E-006),#390);
#246=LINE('',#391,#392);
#247=POINT_STYLE(' ',#393,POSITIVE_LENGTH_MEASURE(1.0E-006),#394);
#248=CARTESIAN_POINT('',(15.8799974190577,13.2990602486691,0.0));
#249=POINT_STYLE(' ',#395,POSITIVE_LENGTH_MEASURE(1.0E-006),#396);
#250=CARTESIAN_POINT('',(13.2990576677268,15.88,-7.18));
#251=POINT_STYLE(' ',#397,POSITIVE_LENGTH_MEASURE(1.0E-006),#398);
#252=CARTESIAN_POINT('',(13.2990628296114,0.0,0.0));
#253=SURFACE_STYLE_USAGE(.BOTH.,#399);
#254=FACE_OUTER_BOUND('',#400,.T.);
#255=PLANE('',#401);
#256=POINT_STYLE(' ',#402,POSITIVE_LENGTH_MEASURE(1.0E-006),#403);
#257=CARTESIAN_POINT('',(15.8800025809423,2.5809397513309,-7.18));
#258=CURVE_STYLE('',#404,POSITIVE_LENGTH_MEASURE(1.0E-006),#405);
#259=LINE('',#406,#407);
#260=CURVE_STYLE('',#408,POSITIVE_LENGTH_MEASURE(1.0E-006),#409);
#261=LINE('',#410,#411);
#262=POINT_STYLE(' ',#412,POSITIVE_LENGTH_MEASURE(1.0E-006),#413);
#263=CARTESIAN_POINT('',(13.2990576677268,15.88,0.0));
#264=POINT_STYLE(' ',#414,POSITIVE_LENGTH_MEASURE(1.0E-006),#415);
#265=CARTESIAN_POINT('',(2.58093717038857,15.88,-7.18));
#266=POINT_STYLE(' ',#416,POSITIVE_LENGTH_MEASURE(1.0E-006),#417);
#267=CARTESIAN_POINT('',(13.2990628296114,0.0,-7.18));
#268=SURFACE_STYLE_USAGE(.BOTH.,#418);
#269=FACE_OUTER_BOUND('',#419,.T.);
#270=PLANE('',#420);
#271=POINT_STYLE(' ',#421,POSITIVE_LENGTH_MEASURE(1.0E-006),#422);
#272=CARTESIAN_POINT('',(2.58093717038857,15.88,0.0));
#273=CURVE_STYLE('',#423,POSITIVE_LENGTH_MEASURE(1.0E-006),#424);
#274=LINE('',#425,#426);
#275=SURFACE_STYLE_USAGE(.BOTH.,#427);
#276=FACE_OUTER_BOUND('',#428,.T.);
#277=PLANE('',#429);
#278=SURFACE_STYLE_USAGE(.BOTH.,#430);
#279=CLOSED_SHELL('',(#83,#91,#157,#145,#93,#81,#113,#131,#159,#151));
#280=POINT_STYLE(' ',#431,POSITIVE_LENGTH_MEASURE(1.0E-006),#432);
#281=CARTESIAN_POINT('',(15.8800025809423,2.5809397513309,0.0));
#282=SURFACE_STYLE_USAGE(.BOTH.,#433);
#283=FACE_OUTER_BOUND('',#434,.T.);
#284=PLANE('',#435);
#285=SURFACE_STYLE_USAGE(.BOTH.,#436);
#286=FACE_OUTER_BOUND('',#437,.T.);
#287=PLANE('',#438);
#288=CURVE_STYLE('',#439,POSITIVE_LENGTH_MEASURE(1.0E-006),#440);
#289=LINE('',#441,#442);
#290=CURVE_STYLE('',#443,POSITIVE_LENGTH_MEASURE(1.0E-006),#444);
#291=LINE('',#445,#446);
#292=CURVE_STYLE('',#447,POSITIVE_LENGTH_MEASURE(1.0E-006),#448);
#293=LINE('',#449,#450);
#294=POINT_STYLE(' ',#451,POSITIVE_LENGTH_MEASURE(1.0E-006),#452);
#295=CARTESIAN_POINT('',(-2.58094233229755E-006,13.2990602486691,0.0));
#296=CURVE_STYLE('',#453,POSITIVE_LENGTH_MEASURE(1.0E-006),#454);
#297=LINE('',#455,#456);
#298=CURVE_STYLE('',#457,POSITIVE_LENGTH_MEASURE(1.0E-006),#458);
#299=LINE('',#459,#460);
#300=CURVE_STYLE('',#461,POSITIVE_LENGTH_MEASURE(1.0E-006),#462);
#301=LINE('',#463,#464);
#302=CURVE_STYLE('',#465,POSITIVE_LENGTH_MEASURE(1.0E-006),#466);
#303=LINE('',#467,#468);
#304=PRODUCT_CONTEXT('',#61,'mechanical');
#305=PRODUCT_DEFINITION_FORMATION_WITH_SPECIFIED_SOURCE(' ','NONE',#176,.NOT_KNOWN.);
#306=CARTESIAN_POINT('',(0.0,0.0,0.0));
#307=DIRECTION('',(0.0,0.0,1.0));
#308=DIRECTION('',(1.0,0.0,0.0));
#309= (NAMED_UNIT(#184)LENGTH_UNIT()SI_UNIT(.MILLI.,.METRE.));
#310=DRAUGHTING_PRE_DEFINED_CURVE_FONT('continuous');
#311=COLOUR_RGB('',0.800000011920929,0.800000011920929,0.800000011920929);
#312=CARTESIAN_POINT('',(2.58093717038857,15.88,-7.18));
#313=VECTOR('',#470,1.0);
#314=PRE_DEFINED_MARKER('');
#315=COLOUR_RGB('',0.800000011920929,0.800000011920929,0.800000011920929);
#316=DRAUGHTING_PRE_DEFINED_CURVE_FONT('continuous');
#317=COLOUR_RGB('',0.800000011920929,0.800000011920929,0.800000011920929);
#318=CARTESIAN_POINT('',(13.2990576677268,15.88,0.0));
#319=VECTOR('',#471,1.0);
#320=SURFACE_SIDE_STYLE('',(#472));
#321=EDGE_LOOP('',(#473,#474,#475,#476));
#322=AXIS2_PLACEMENT_3D('',#477,#478,#479);
#323=SURFACE_SIDE_STYLE('',(#480));
#324=EDGE_LOOP('',(#481,#482,#483,#484));
#325=AXIS2_PLACEMENT_3D('',#485,#486,#487);
#326=DRAUGHTING_PRE_DEFINED_CURVE_FONT('continuous');
#327=COLOUR_RGB('',0.800000011920929,0.800000011920929,0.800000011920929);
#328=CARTESIAN_POINT('',(15.8800025809423,2.5809397513309,0.0));
#329=VECTOR('',#488,1.0);
#330=DRAUGHTING_PRE_DEFINED_CURVE_FONT('continuous');
#331=COLOUR_RGB('',0.800000011920929,0.800000011920929,0.800000011920929);
#332=CARTESIAN_POINT('',(2.58093717038857,15.88,0.0));
#333=VECTOR('',#489,1.0);
#334=PRE_DEFINED_MARKER('');
#335=COLOUR_RGB('',0.800000011920929,0.800000011920929,0.800000011920929);
#336=SURFACE_SIDE_STYLE('',(#490));
#337=EDGE_LOOP('',(#491,#492,#493,#494));
#338=AXIS2_PLACEMENT_3D('',#495,#496,#497);
#339=SURFACE_SIDE_STYLE('',(#498));
#340=EDGE_LOOP('',(#499,#500,#501,#502));
#341=AXIS2_PLACEMENT_3D('',#503,#504,#505);
#342=DRAUGHTING_PRE_DEFINED_CURVE_FONT('continuous');
#343=COLOUR_RGB('',0.800000011920929,0.800000011920929,0.800000011920929);
#344=CARTESIAN_POINT('',(13.2990628296114,0.0,0.0));
#345=VECTOR('',#506,1.0);
#346=DRAUGHTING_PRE_DEFINED_CURVE_FONT('continuous');
#347=COLOUR_RGB('',0.800000011920929,0.800000011920929,0.800000011920929);
#348=CARTESIAN_POINT('',(15.8800025809423,2.5809397513309,-7.18));
#349=VECTOR('',#507,1.0);
#350=DRAUGHTING_PRE_DEFINED_CURVE_FONT('continuous');
#351=COLOUR_RGB('',0.800000011920929,0.800000011920929,0.800000011920929);
#352=CARTESIAN_POINT('',(2.58093717038857,15.88,0.0));
#353=VECTOR('',#508,1.0);
#354=PRE_DEFINED_MARKER('');
#355=COLOUR_RGB('',0.800000011920929,0.800000011920929,0.800000011920929);
#356=PRE_DEFINED_MARKER('');
#357=COLOUR_RGB('',0.800000011920929,0.800000011920929,0.800000011920929);
#358=DRAUGHTING_PRE_DEFINED_CURVE_FONT('continuous');
#359=COLOUR_RGB('',0.800000011920929,0.800000011920929,0.800000011920929);
#360=CARTESIAN_POINT('',(15.8799974190577,13.2990602486691,0.0));
#361=VECTOR('',#509,1.0);
#362=DRAUGHTING_PRE_DEFINED_CURVE_FONT('continuous');
#363=COLOUR_RGB('',0.800000011920929,0.800000011920929,0.800000011920929);
#364=CARTESIAN_POINT('',(-2.5809423323E-006,13.2990602486691,-7.18));
#365=VECTOR('',#510,1.0);
#366=DRAUGHTING_PRE_DEFINED_CURVE_FONT('continuous');
#367=COLOUR_RGB('',0.800000011920929,0.800000011920929,0.800000011920929);
#368=CARTESIAN_POINT('',(15.8799974190577,13.2990602486691,0.0));
#369=VECTOR('',#511,1.0);
#370=DRAUGHTING_PRE_DEFINED_CURVE_FONT('continuous');
#371=COLOUR_RGB('',0.800000011920929,0.800000011920929,0.800000011920929);
#372=CARTESIAN_POINT('',(2.58094233227323,0.0,-7.18));
#373=VECTOR('',#512,1.0);
#374=SURFACE_SIDE_STYLE('',(#513));
#375=EDGE_LOOP('',(#514,#515,#516,#517));
#376=AXIS2_PLACEMENT_3D('',#518,#519,#520);
#377=DRAUGHTING_PRE_DEFINED_CURVE_FONT('continuous');
#378=COLOUR_RGB('',0.800000011920929,0.800000011920929,0.800000011920929);
#379=CARTESIAN_POINT('',(13.2990576677268,15.88,0.0));
#380=VECTOR('',#521,1.0);
#381=PRE_DEFINED_MARKER('');
#382=COLOUR_RGB('',0.800000011920929,0.800000011920929,0.800000011920929);
#383=DRAUGHTING_PRE_DEFINED_CURVE_FONT('continuous');
#384=COLOUR_RGB('',0.800000011920929,0.800000011920929,0.800000011920929);
#385=CARTESIAN_POINT('',(-2.5809423323E-006,13.2990602486691,0.0));
#386=VECTOR('',#522,1.0);
#387=PRE_DEFINED_MARKER('');
#388=COLOUR_RGB('',0.800000011920929,0.800000011920929,0.800000011920929);
#389=DRAUGHTING_PRE_DEFINED_CURVE_FONT('continuous');
#390=COLOUR_RGB('',0.800000011920929,0.800000011920929,0.800000011920929);
#391=CARTESIAN_POINT('',(2.58094233227323,0.0,0.0));
#392=VECTOR('',#523,1.0);
#393=PRE_DEFINED_MARKER('');
#394=COLOUR_RGB('',0.800000011920929,0.800000011920929,0.800000011920929);
#395=PRE_DEFINED_MARKER('');
#396=COLOUR_RGB('',0.800000011920929,0.800000011920929,0.800000011920929);
#397=PRE_DEFINED_MARKER('');
#398=COLOUR_RGB('',0.800000011920929,0.800000011920929,0.800000011920929);
#399=SURFACE_SIDE_STYLE('',(#524));
#400=EDGE_LOOP('',(#525,#526,#527,#528));
#401=AXIS2_PLACEMENT_3D('',#529,#530,#531);
#402=PRE_DEFINED_MARKER('');
#403=COLOUR_RGB('',0.800000011920929,0.800000011920929,0.800000011920929);
#404=DRAUGHTING_PRE_DEFINED_CURVE_FONT('continuous');
#405=COLOUR_RGB('',0.800000011920929,0.800000011920929,0.800000011920929);
#406=CARTESIAN_POINT('',(13.2990628296114,0.0,-7.18));
#407=VECTOR('',#532,1.0);
#408=DRAUGHTING_PRE_DEFINED_CURVE_FONT('continuous');
#409=COLOUR_RGB('',0.800000011920929,0.800000011920929,0.800000011920929);
#410=CARTESIAN_POINT('',(15.8800025809423,2.5809397513309,0.0));
#411=VECTOR('',#533,1.0);
#412=PRE_DEFINED_MARKER('');
#413=COLOUR_RGB('',0.800000011920929,0.800000011920929,0.800000011920929);
#414=PRE_DEFINED_MARKER('');
#415=COLOUR_RGB('',0.800000011920929,0.800000011920929,0.800000011920929);
#416=PRE_DEFINED_MARKER('');
#417=COLOUR_RGB('',0.800000011920929,0.800000011920929,0.800000011920929);
#418=SURFACE_SIDE_STYLE('',(#534));
#419=EDGE_LOOP('',(#535,#536,#537,#538));
#420=AXIS2_PLACEMENT_3D('',#539,#540,#541);
#421=PRE_DEFINED_MARKER('');
#422=COLOUR_RGB('',0.800000011920929,0.800000011920929,0.800000011920929);
#423=DRAUGHTING_PRE_DEFINED_CURVE_FONT('continuous');
#424=COLOUR_RGB('',0.800000011920929,0.800000011920929,0.800000011920929);
#425=CARTESIAN_POINT('',(2.5809423323E-006,2.5809397513309,0.0));
#426=VECTOR('',#542,1.0);
#427=SURFACE_SIDE_STYLE('',(#543));
#428=EDGE_LOOP('',(#544,#545,#546,#547,#548,#549,#550,#551));
#429=AXIS2_PLACEMENT_3D('',#552,#553,#554);
#430=SURFACE_SIDE_STYLE('',(#555));
#431=PRE_DEFINED_MARKER('');
#432=COLOUR_RGB('',0.800000011920929,0.800000011920929,0.800000011920929);
#433=SURFACE_SIDE_STYLE('',(#556));
#434=EDGE_LOOP('',(#557,#558,#559,#560));
#435=AXIS2_PLACEMENT_3D('',#561,#562,#563);
#436=SURFACE_SIDE_STYLE('',(#564));
#437=EDGE_LOOP('',(#565,#566,#567,#568,#569,#570,#571,#572));
#438=AXIS2_PLACEMENT_3D('',#573,#574,#575);
#439=DRAUGHTING_PRE_DEFINED_CURVE_FONT('continuous');
#440=COLOUR_RGB('',0.800000011920929,0.800000011920929,0.800000011920929);
#441=CARTESIAN_POINT('',(13.2990628296114,0.0,0.0));
#442=VECTOR('',#576,1.0);
#443=DRAUGHTING_PRE_DEFINED_CURVE_FONT('continuous');
#444=COLOUR_RGB('',0.800000011920929,0.800000011920929,0.800000011920929);
#445=CARTESIAN_POINT('',(15.8799974190577,13.2990602486691,-7.18));
#446=VECTOR('',#577,1.0);
#447=DRAUGHTING_PRE_DEFINED_CURVE_FONT('continuous');
#448=COLOUR_RGB('',0.800000011920929,0.800000011920929,0.800000011920929);
#449=CARTESIAN_POINT('',(13.2990576677268,15.88,-7.18));
#450=VECTOR('',#578,1.0);
#451=PRE_DEFINED_MARKER('');
#452=COLOUR_RGB('',0.800000011920929,0.800000011920929,0.800000011920929);
#453=DRAUGHTING_PRE_DEFINED_CURVE_FONT('continuous');
#454=COLOUR_RGB('',0.800000011920929,0.800000011920929,0.800000011920929);
#455=CARTESIAN_POINT('',(2.5809423323E-006,2.5809397513309,0.0));
#456=VECTOR('',#579,1.0);
#457=DRAUGHTING_PRE_DEFINED_CURVE_FONT('continuous');
#458=COLOUR_RGB('',0.800000011920929,0.800000011920929,0.800000011920929);
#459=CARTESIAN_POINT('',(2.58094233227323,0.0,0.0));
#460=VECTOR('',#580,1.0);
#461=DRAUGHTING_PRE_DEFINED_CURVE_FONT('continuous');
#462=COLOUR_RGB('',0.800000011920929,0.800000011920929,0.800000011920929);
#463=CARTESIAN_POINT('',(-2.58094233229755E-006,13.2990602486691,0.0));
#464=VECTOR('',#581,1.0);
#465=DRAUGHTING_PRE_DEFINED_CURVE_FONT('continuous');
#466=COLOUR_RGB('',0.800000011920929,0.800000011920929,0.800000011920929);
#467=CARTESIAN_POINT('',(2.5809423323E-006,2.5809397513309,-7.18));
#468=VECTOR('',#582,1.0);
#470=DIRECTION('',(-0.707106781186548,-0.707106781186548,0.0));
#471=DIRECTION('',(0.0,0.0,-1.0));
#472=SURFACE_STYLE_FILL_AREA(#583);
#473=ORIENTED_EDGE('',*,*,#107,.T.);
#474=ORIENTED_EDGE('',*,*,#169,.F.);
#475=ORIENTED_EDGE('',*,*,#119,.F.);
#476=ORIENTED_EDGE('',*,*,#173,.T.);
#477=CARTESIAN_POINT('',(-2.58094233229755E-006,13.2990602486691,0.0));
#478=DIRECTION('',(-0.999999999999884,-4.8160352982422E-007,-0.0));
#479=DIRECTION('',(-4.8160352982422E-007,0.999999999999884,0.0));
#480=SURFACE_STYLE_FILL_AREA(#584);
#481=ORIENTED_EDGE('',*,*,#135,.T.);
#482=ORIENTED_EDGE('',*,*,#85,.F.);
#483=ORIENTED_EDGE('',*,*,#161,.F.);
#484=ORIENTED_EDGE('',*,*,#95,.T.);
#485=CARTESIAN_POINT('',(13.2990628296114,0.0,0.0));
#486=DIRECTION('',(0.707106781186547,-0.707106781186548,0.0));
#487=DIRECTION('',(-0.707106781186548,-0.707106781186547,-0.0));
#488=DIRECTION('',(0.0,0.0,-1.0));
#489=DIRECTION('',(-0.707106781186548,-0.707106781186548,0.0));
#490=SURFACE_STYLE_FILL_AREA(#585);
#491=ORIENTED_EDGE('',*,*,#97,.T.);
#492=ORIENTED_EDGE('',*,*,#105,.F.);
#493=ORIENTED_EDGE('',*,*,#137,.F.);
#494=ORIENTED_EDGE('',*,*,#85,.T.);
#495=CARTESIAN_POINT('',(15.8800025809423,2.5809397513309,0.0));
#496=DIRECTION('',(0.999999999999884,4.8160352990663E-007,0.0));
#497=DIRECTION('',(4.8160352990663E-007,-0.999999999999884,-0.0));
#498=SURFACE_STYLE_FILL_AREA(#586);
#499=ORIENTED_EDGE('',*,*,#75,.T.);
#500=ORIENTED_EDGE('',*,*,#173,.F.);
#501=ORIENTED_EDGE('',*,*,#87,.F.);
#502=ORIENTED_EDGE('',*,*,#99,.T.);
#503=CARTESIAN_POINT('',(2.58093717038857,15.88,0.0));
#504=DIRECTION('',(-0.707106781186548,0.707106781186548,0.0));
#505=DIRECTION('',(0.707106781186548,0.707106781186548,-0.0));
#506=DIRECTION('',(0.0,0.0,-1.0));
#507=DIRECTION('',(-4.8160352990663E-007,0.999999999999884,0.0));
#508=DIRECTION('',(0.0,0.0,-1.0));
#509=DIRECTION('',(0.0,0.0,-1.0));
#510=DIRECTION('',(4.8160352982422E-007,-0.999999999999884,0.0));
#511=DIRECTION('',(-0.707106781186548,0.707106781186548,0.0));
#512=DIRECTION('',(1.0,0.0,0.0));
#513=SURFACE_STYLE_FILL_AREA(#587);
#514=ORIENTED_EDGE('',*,*,#175,.T.);
#515=ORIENTED_EDGE('',*,*,#171,.F.);
#516=ORIENTED_EDGE('',*,*,#149,.F.);
#517=ORIENTED_EDGE('',*,*,#169,.T.);
#518=CARTESIAN_POINT('',(2.5809423323E-006,2.5809397513309,0.0));
#519=DIRECTION('',(-0.707106781186547,-0.707106781186548,-0.0));
#520=DIRECTION('',(-0.707106781186548,0.707106781186547,0.0));
#521=DIRECTION('',(-1.0,0.0,0.0));
#522=DIRECTION('',(4.8160352982422E-007,-0.999999999999884,0.0));
#523=DIRECTION('',(1.0,0.0,0.0));
#524=SURFACE_STYLE_FILL_AREA(#588);
#525=ORIENTED_EDGE('',*,*,#111,.T.);
#526=ORIENTED_EDGE('',*,*,#95,.F.);
#527=ORIENTED_EDGE('',*,*,#123,.F.);
#528=ORIENTED_EDGE('',*,*,#171,.T.);
#529=CARTESIAN_POINT('',(2.58094233227323,0.0,0.0));
#530=DIRECTION('',(0.0,-1.0,-0.0));
#531=DIRECTION('',(-1.0,0.0,-0.0));
#532=DIRECTION('',(0.707106781186548,0.707106781186547,0.0));
#533=DIRECTION('',(-4.8160352990663E-007,0.999999999999884,0.0));
#534=SURFACE_STYLE_FILL_AREA(#589);
#535=ORIENTED_EDGE('',*,*,#165,.T.);
#536=ORIENTED_EDGE('',*,*,#99,.F.);
#537=ORIENTED_EDGE('',*,*,#115,.F.);
#538=ORIENTED_EDGE('',*,*,#79,.T.);
#539=CARTESIAN_POINT('',(13.2990576677268,15.88,0.0));
#540=DIRECTION('',(0.0,1.0,0.0));
#541=DIRECTION('',(1.0,-0.0,-0.0));
#542=DIRECTION('',(0.707106781186548,-0.707106781186547,0.0));
#543=SURFACE_STYLE_FILL_AREA(#590);
#544=ORIENTED_EDGE('',*,*,#123,.T.);
#545=ORIENTED_EDGE('',*,*,#161,.T.);
#546=ORIENTED_EDGE('',*,*,#137,.T.);
#547=ORIENTED_EDGE('',*,*,#109,.T.);
#548=ORIENTED_EDGE('',*,*,#115,.T.);
#549=ORIENTED_EDGE('',*,*,#87,.T.);
#550=ORIENTED_EDGE('',*,*,#119,.T.);
#551=ORIENTED_EDGE('',*,*,#149,.T.);
#552=CARTESIAN_POINT('',(7.94,7.94,0.0));
#553=DIRECTION('',(0.0,0.0,1.0));
#554=DIRECTION('',(1.0,0.0,0.0));
#555=SURFACE_STYLE_FILL_AREA(#591);
#556=SURFACE_STYLE_FILL_AREA(#592);
#557=ORIENTED_EDGE('',*,*,#163,.T.);
#558=ORIENTED_EDGE('',*,*,#79,.F.);
#559=ORIENTED_EDGE('',*,*,#109,.F.);
#560=ORIENTED_EDGE('',*,*,#105,.T.);
#561=CARTESIAN_POINT('',(15.8799974190577,13.2990602486691,0.0));
#562=DIRECTION('',(0.707106781186548,0.707106781186548,0.0));
#563=DIRECTION('',(0.707106781186548,-0.707106781186548,-0.0));
#564=SURFACE_STYLE_FILL_AREA(#593);
#565=ORIENTED_EDGE('',*,*,#135,.F.);
#566=ORIENTED_EDGE('',*,*,#111,.F.);
#567=ORIENTED_EDGE('',*,*,#175,.F.);
#568=ORIENTED_EDGE('',*,*,#107,.F.);
#569=ORIENTED_EDGE('',*,*,#75,.F.);
#570=ORIENTED_EDGE('',*,*,#165,.F.);
#571=ORIENTED_EDGE('',*,*,#163,.F.);
#572=ORIENTED_EDGE('',*,*,#97,.F.);
#573=CARTESIAN_POINT('',(7.94,7.94,-7.18));
#574=DIRECTION('',(0.0,0.0,1.0));
#575=DIRECTION('',(1.0,0.0,0.0));
#576=DIRECTION('',(0.707106781186548,0.707106781186547,0.0));
#577=DIRECTION('',(-0.707106781186548,0.707106781186548,0.0));
#578=DIRECTION('',(-1.0,0.0,0.0));
#579=DIRECTION('',(0.0,0.0,-1.0));
#580=DIRECTION('',(0.0,0.0,-1.0));
#581=DIRECTION('',(0.0,0.0,-1.0));
#582=DIRECTION('',(0.707106781186548,-0.707106781186547,0.0));
#583=FILL_AREA_STYLE('',(#594));
#584=FILL_AREA_STYLE('',(#595));
#585=FILL_AREA_STYLE('',(#596));
#586=FILL_AREA_STYLE('',(#597));
#587=FILL_AREA_STYLE('',(#598));
#588=FILL_AREA_STYLE('',(#599));
#589=FILL_AREA_STYLE('',(#600));
#590=FILL_AREA_STYLE('',(#601));
#591=FILL_AREA_STYLE('',(#602));
#592=FILL_AREA_STYLE('',(#603));
#593=FILL_AREA_STYLE('',(#604));
#594=FILL_AREA_STYLE_COLOUR('',#605);
#595=FILL_AREA_STYLE_COLOUR('',#606);
#596=FILL_AREA_STYLE_COLOUR('',#607);
#597=FILL_AREA_STYLE_COLOUR('',#608);
#598=FILL_AREA_STYLE_COLOUR('',#609);
#599=FILL_AREA_STYLE_COLOUR('',#610);
#600=FILL_AREA_STYLE_COLOUR('',#611);
#601=FILL_AREA_STYLE_COLOUR('',#612);
#602=FILL_AREA_STYLE_COLOUR('',#613);
#603=FILL_AREA_STYLE_COLOUR('',#614);
#604=FILL_AREA_STYLE_COLOUR('',#615);
#605=COLOUR_RGB('',0.800000011920929,0.800000011920929,0.800000011920929);
#606=COLOUR_RGB('',0.800000011920929,0.800000011920929,0.800000011920929);
#607=COLOUR_RGB('',0.800000011920929,0.800000011920929,0.800000011920929);
#608=COLOUR_RGB('',0.800000011920929,0.800000011920929,0.800000011920929);
#609=COLOUR_RGB('',0.800000011920929,0.800000011920929,0.800000011920929);
#610=COLOUR_RGB('',0.800000011920929,0.800000011920929,0.800000011920929);
#611=COLOUR_RGB('',0.800000011920929,0.800000011920929,0.800000011920929);
#612=COLOUR_RGB('',0.800000011920929,0.800000011920929,0.800000011920929);
#613=COLOUR_RGB('',0.800000011920929,0.800000011920929,0.800000011920929);
#614=COLOUR_RGB('',0.800000011920929,0.800000011920929,0.800000011920929);
#615=COLOUR_RGB('',0.800000011920929,0.800000011920929,0.800000011920929);
#616=AXIS2_PLACEMENT_3D('PCS',#617,#618,#619);
#617=CARTESIAN_POINT('',(0.0,0.0,0.0));
#618=DIRECTION('',(0.0,0.0,1.0));
#619=DIRECTION('',(1.0,0.0,0.0));
#620=AXIS2_PLACEMENT_3D('MCS',#621,#622,#623);
#621=CARTESIAN_POINT('',(7.94,7.94,0.0));
#622=DIRECTION('',(0.0,0.0,1.0));
#623=DIRECTION('',(1.0,0.0,0.0));
#624=CONSTRUCTIVE_GEOMETRY_REPRESENTATION_RELATIONSHIP('coordinate systems',$,#65,#625);
#625=CONSTRUCTIVE_GEOMETRY_REPRESENTATION('coordinate systems',(#616,#620),#6);
ENDSEC;
END-ISO-10303-21;
