ISO-10303-21;
HEADER;
FILE_DESCRIPTION(('no description'),'unknown implementation level');
FILE_NAME('solidFLK_n5dzBJyUebFcf_3XRBkbfm8_1.STP','  ',('CIMSOURCE GmbH'),('CADClick - KiM GmbH - www.kimweb.de'),'unknown preprocess','ACIS','unknown authorization');
FILE_SCHEMA(('automotive_design'));
ENDSEC;
DATA;
#1=MECHANICAL_DESIGN_GEOMETRIC_PRESENTATION_REPRESENTATION(' ',(#10,#11,#12,#13,#14,#15,#16,#17,#18,#19,#20,#21,#22,#23,#24,#25,#26,#27,#28,#29,#30,#31,#32,#33,#34,#35,#36,#37,#38,#39,#40,#41,#42,#43,#44,#45,#46,#47,#48),#6);
#2=PRODUCT_DEFINITION_CONTEXT('',#49,'design');
#3=APPLICATION_PROTOCOL_DEFINITION('INTERNATIONAL STANDARD','automotive_design',1994,#49);
#4=PRODUCT_CATEGORY_RELATIONSHIP('NONE','NONE',#50,#51);
#5=SHAPE_DEFINITION_REPRESENTATION(#52,#53);
#6= (GEOMETRIC_REPRESENTATION_CONTEXT(3)GLOBAL_UNCERTAINTY_ASSIGNED_CONTEXT((#56))GLOBAL_UNIT_ASSIGNED_CONTEXT((#58,#59,#60))REPRESENTATION_CONTEXT('NONE','WORKSPACE'));
#10=STYLED_ITEM('',(#62),#63);
#11=STYLED_ITEM('',(#64),#65);
#12=STYLED_ITEM('',(#66),#67);
#13=STYLED_ITEM('',(#68),#69);
#14=STYLED_ITEM('',(#70),#71);
#15=STYLED_ITEM('',(#72),#73);
#16=STYLED_ITEM('',(#74),#75);
#17=STYLED_ITEM('',(#76),#77);
#18=STYLED_ITEM('',(#78),#79);
#19=STYLED_ITEM('',(#80),#81);
#20=STYLED_ITEM('',(#82),#83);
#21=STYLED_ITEM('',(#84),#85);
#22=STYLED_ITEM('',(#86),#87);
#23=STYLED_ITEM('',(#88),#89);
#24=STYLED_ITEM('',(#90),#91);
#25=STYLED_ITEM('',(#92),#93);
#26=STYLED_ITEM('',(#94),#95);
#27=STYLED_ITEM('',(#96),#97);
#28=STYLED_ITEM('',(#98),#99);
#29=STYLED_ITEM('',(#100),#101);
#30=STYLED_ITEM('',(#102),#103);
#31=STYLED_ITEM('',(#104),#105);
#32=STYLED_ITEM('',(#106),#107);
#33=STYLED_ITEM('',(#108),#109);
#34=STYLED_ITEM('',(#110),#111);
#35=STYLED_ITEM('',(#112),#113);
#36=STYLED_ITEM('',(#114),#115);
#37=STYLED_ITEM('',(#116),#117);
#38=STYLED_ITEM('',(#118),#119);
#39=STYLED_ITEM('',(#120),#121);
#40=STYLED_ITEM('',(#122),#123);
#41=STYLED_ITEM('',(#124),#125);
#42=STYLED_ITEM('',(#126),#127);
#43=STYLED_ITEM('',(#128),#129);
#44=STYLED_ITEM('',(#130),#131);
#45=STYLED_ITEM('',(#132),#133);
#46=STYLED_ITEM('',(#134),#135);
#47=STYLED_ITEM('',(#136),#137);
#48=STYLED_ITEM('',(#138),#139);
#49=APPLICATION_CONTEXT(' ');
#50=PRODUCT_CATEGORY('part','NONE');
#51=PRODUCT_RELATED_PRODUCT_CATEGORY('detail',' ',(#140));
#52=PRODUCT_DEFINITION_SHAPE('NONE','NONE',#141);
#53=ADVANCED_BREP_SHAPE_REPRESENTATION('1',(#111,#142),#6);
#56=UNCERTAINTY_MEASURE_WITH_UNIT(LENGTH_MEASURE(1.0E-006),#58,'','');
#58= (CONVERSION_BASED_UNIT('MILLIMETRE',#145)LENGTH_UNIT()NAMED_UNIT(#148));
#59= (NAMED_UNIT(#150)PLANE_ANGLE_UNIT()SI_UNIT($,.RADIAN.));
#60= (NAMED_UNIT(#150)SOLID_ANGLE_UNIT()SI_UNIT($,.STERADIAN.));
#62=PRESENTATION_STYLE_ASSIGNMENT((#156));
#63=EDGE_CURVE('',#103,#131,#157,.T.);
#64=PRESENTATION_STYLE_ASSIGNMENT((#158));
#65=EDGE_CURVE('',#127,#83,#159,.T.);
#66=PRESENTATION_STYLE_ASSIGNMENT((#160));
#67=VERTEX_POINT('',#161);
#68=PRESENTATION_STYLE_ASSIGNMENT((#162));
#69=VERTEX_POINT('',#163);
#70=PRESENTATION_STYLE_ASSIGNMENT((#164));
#71=ADVANCED_FACE('',(#165),#166,.T.);
#72=PRESENTATION_STYLE_ASSIGNMENT((#167));
#73=VERTEX_POINT('',#168);
#74=PRESENTATION_STYLE_ASSIGNMENT((#169));
#75=ADVANCED_FACE('',(#170),#171,.T.);
#76=PRESENTATION_STYLE_ASSIGNMENT((#172));
#77=EDGE_CURVE('',#127,#103,#173,.T.);
#78=PRESENTATION_STYLE_ASSIGNMENT((#174));
#79=VERTEX_POINT('',#175);
#80=PRESENTATION_STYLE_ASSIGNMENT((#176));
#81=ADVANCED_FACE('',(#177),#178,.T.);
#82=PRESENTATION_STYLE_ASSIGNMENT((#179));
#83=VERTEX_POINT('',#180);
#84=PRESENTATION_STYLE_ASSIGNMENT((#181));
#85=EDGE_CURVE('',#117,#73,#182,.T.);
#86=PRESENTATION_STYLE_ASSIGNMENT((#183));
#87=ADVANCED_FACE('',(#184),#185,.T.);
#88=PRESENTATION_STYLE_ASSIGNMENT((#186));
#89=EDGE_CURVE('',#113,#83,#187,.T.);
#90=PRESENTATION_STYLE_ASSIGNMENT((#188));
#91=EDGE_CURVE('',#137,#127,#189,.T.);
#92=PRESENTATION_STYLE_ASSIGNMENT((#190));
#93=VERTEX_POINT('',#191);
#94=PRESENTATION_STYLE_ASSIGNMENT((#192));
#95=EDGE_CURVE('',#131,#93,#193,.T.);
#96=PRESENTATION_STYLE_ASSIGNMENT((#194));
#97=EDGE_CURVE('',#103,#79,#195,.T.);
#98=PRESENTATION_STYLE_ASSIGNMENT((#196));
#99=ADVANCED_FACE('',(#197),#198,.T.);
#100=PRESENTATION_STYLE_ASSIGNMENT((#199));
#101=EDGE_CURVE('',#83,#131,#200,.T.);
#102=PRESENTATION_STYLE_ASSIGNMENT((#201));
#103=VERTEX_POINT('',#202);
#104=PRESENTATION_STYLE_ASSIGNMENT((#203));
#105=EDGE_CURVE('',#69,#67,#204,.T.);
#106=PRESENTATION_STYLE_ASSIGNMENT((#205));
#107=ADVANCED_FACE('',(#206),#207,.T.);
#108=PRESENTATION_STYLE_ASSIGNMENT((#208));
#109=EDGE_CURVE('',#73,#113,#209,.T.);
#110=PRESENTATION_STYLE_ASSIGNMENT((#210));
#111=MANIFOLD_SOLID_BREP('1',#211);
#112=PRESENTATION_STYLE_ASSIGNMENT((#212));
#113=VERTEX_POINT('',#213);
#114=PRESENTATION_STYLE_ASSIGNMENT((#214));
#115=EDGE_CURVE('',#69,#117,#215,.T.);
#116=PRESENTATION_STYLE_ASSIGNMENT((#216));
#117=VERTEX_POINT('',#217);
#118=PRESENTATION_STYLE_ASSIGNMENT((#218));
#119=ADVANCED_FACE('',(#219),#220,.T.);
#120=PRESENTATION_STYLE_ASSIGNMENT((#221));
#121=EDGE_CURVE('',#67,#73,#222,.T.);
#122=PRESENTATION_STYLE_ASSIGNMENT((#223));
#123=EDGE_CURVE('',#93,#117,#224,.T.);
#124=PRESENTATION_STYLE_ASSIGNMENT((#225));
#125=EDGE_CURVE('',#79,#69,#226,.T.);
#126=PRESENTATION_STYLE_ASSIGNMENT((#227));
#127=VERTEX_POINT('',#228);
#128=PRESENTATION_STYLE_ASSIGNMENT((#229));
#129=EDGE_CURVE('',#67,#137,#230,.T.);
#130=PRESENTATION_STYLE_ASSIGNMENT((#231));
#131=VERTEX_POINT('',#232);
#132=PRESENTATION_STYLE_ASSIGNMENT((#233));
#133=ADVANCED_FACE('',(#234),#235,.F.);
#134=PRESENTATION_STYLE_ASSIGNMENT((#236));
#135=EDGE_CURVE('',#79,#93,#237,.T.);
#136=PRESENTATION_STYLE_ASSIGNMENT((#238));
#137=VERTEX_POINT('',#239);
#138=PRESENTATION_STYLE_ASSIGNMENT((#240));
#139=EDGE_CURVE('',#137,#113,#241,.T.);
#140=PRODUCT('1','1','PART-1-DESC',(#242));
#141=PRODUCT_DEFINITION('NONE','NONE',#243,#2);
#142=AXIS2_PLACEMENT_3D('',#244,#245,#246);
#145=LENGTH_MEASURE_WITH_UNIT(LENGTH_MEASURE(1.0),#247);
#148=DIMENSIONAL_EXPONENTS(1.0,0.0,0.0,0.0,0.0,0.0,0.0);
#150=DIMENSIONAL_EXPONENTS(0.0,0.0,0.0,0.0,0.0,0.0,0.0);
#156=CURVE_STYLE('',#248,POSITIVE_LENGTH_MEASURE(1.0E-006),#249);
#157=LINE('',#250,#251);
#158=CURVE_STYLE('',#252,POSITIVE_LENGTH_MEASURE(1.0E-006),#253);
#159=LINE('',#254,#255);
#160=POINT_STYLE(' ',#256,POSITIVE_LENGTH_MEASURE(1.0E-006),#257);
#161=CARTESIAN_POINT('',(18.0133283986297,1.19999999995,0.0));
#162=POINT_STYLE(' ',#258,POSITIVE_LENGTH_MEASURE(1.0E-006),#259);
#163=CARTESIAN_POINT('',(17.3205080756888,0.0,0.0));
#164=SURFACE_STYLE_USAGE(.BOTH.,#260);
#165=FACE_OUTER_BOUND('',#261,.T.);
#166=CYLINDRICAL_SURFACE('',#262,0.800000000000001);
#167=POINT_STYLE(' ',#263,POSITIVE_LENGTH_MEASURE(1.0E-006),#264);
#168=CARTESIAN_POINT('',(18.0133283986297,1.19999999995,-6.55));
#169=SURFACE_STYLE_USAGE(.BOTH.,#265);
#170=FACE_OUTER_BOUND('',#266,.T.);
#171=PLANE('',#267);
#172=CURVE_STYLE('',#268,POSITIVE_LENGTH_MEASURE(1.0E-006),#269);
#173=LINE('',#270,#271);
#174=POINT_STYLE(' ',#272,POSITIVE_LENGTH_MEASURE(1.0E-006),#273);
#175=CARTESIAN_POINT('',(1.3856406460551,0.0,0.0));
#176=SURFACE_STYLE_USAGE(.BOTH.,#274);
#177=FACE_OUTER_BOUND('',#275,.T.);
#178=PLANE('',#276);
#179=POINT_STYLE(' ',#277,POSITIVE_LENGTH_MEASURE(1.0E-006),#278);
#180=CARTESIAN_POINT('',(8.66025403793099,14.99999999995,-6.55));
#181=CURVE_STYLE('',#279,POSITIVE_LENGTH_MEASURE(1.0E-006),#280);
#182=CIRCLE('',#281,0.800000000000001);
#183=SURFACE_STYLE_USAGE(.BOTH.,#282);
#184=FACE_OUTER_BOUND('',#283,.T.);
#185=PLANE('',#284);
#186=CURVE_STYLE('',#285,POSITIVE_LENGTH_MEASURE(1.0E-006),#286);
#187=CIRCLE('',#287,0.800000000000002);
#188=CURVE_STYLE('',#288,POSITIVE_LENGTH_MEASURE(1.0E-006),#289);
#189=CIRCLE('',#290,0.800000000000002);
#190=POINT_STYLE(' ',#291,POSITIVE_LENGTH_MEASURE(1.0E-006),#292);
#191=CARTESIAN_POINT('',(1.3856406460551,0.0,-6.55));
#192=CURVE_STYLE('',#293,POSITIVE_LENGTH_MEASURE(1.0E-006),#294);
#193=CIRCLE('',#295,0.8);
#194=CURVE_STYLE('',#296,POSITIVE_LENGTH_MEASURE(1.0E-006),#297);
#195=CIRCLE('',#298,0.8);
#196=SURFACE_STYLE_USAGE(.BOTH.,#299);
#197=FACE_OUTER_BOUND('',#300,.T.);
#198=CYLINDRICAL_SURFACE('',#301,0.8);
#199=CURVE_STYLE('',#302,POSITIVE_LENGTH_MEASURE(1.0E-006),#303);
#200=LINE('',#304,#305);
#201=POINT_STYLE(' ',#306,POSITIVE_LENGTH_MEASURE(1.0E-006),#307);
#202=CARTESIAN_POINT('',(0.692820323027551,1.2,0.0));
#203=CURVE_STYLE('',#308,POSITIVE_LENGTH_MEASURE(1.0E-006),#309);
#204=CIRCLE('',#310,0.800000000000001);
#205=SURFACE_STYLE_USAGE(.BOTH.,#311);
#206=FACE_OUTER_BOUND('',#312,.T.);
#207=CYLINDRICAL_SURFACE('',#313,0.800000000000002);
#208=CURVE_STYLE('',#314,POSITIVE_LENGTH_MEASURE(1.0E-006),#315);
#209=LINE('',#316,#317);
#210=SURFACE_STYLE_USAGE(.BOTH.,#318);
#211=CLOSED_SHELL('',(#71,#119,#107,#81,#99,#87,#133,#75));
#212=POINT_STYLE(' ',#319,POSITIVE_LENGTH_MEASURE(1.0E-006),#320);
#213=CARTESIAN_POINT('',(10.0458946838995,15.0,-6.55));
#214=CURVE_STYLE('',#321,POSITIVE_LENGTH_MEASURE(1.0E-006),#322);
#215=LINE('',#323,#324);
#216=POINT_STYLE(' ',#325,POSITIVE_LENGTH_MEASURE(1.0E-006),#326);
#217=CARTESIAN_POINT('',(17.3205080756888,0.0,-6.55));
#218=SURFACE_STYLE_USAGE(.BOTH.,#327);
#219=FACE_OUTER_BOUND('',#328,.T.);
#220=PLANE('',#329);
#221=CURVE_STYLE('',#330,POSITIVE_LENGTH_MEASURE(1.0E-006),#331);
#222=LINE('',#332,#333);
#223=CURVE_STYLE('',#334,POSITIVE_LENGTH_MEASURE(1.0E-006),#335);
#224=LINE('',#336,#337);
#225=CURVE_STYLE('',#338,POSITIVE_LENGTH_MEASURE(1.0E-006),#339);
#226=LINE('',#340,#341);
#227=POINT_STYLE(' ',#342,POSITIVE_LENGTH_MEASURE(1.0E-006),#343);
#228=CARTESIAN_POINT('',(8.66025403793099,14.99999999995,0.0));
#229=CURVE_STYLE('',#344,POSITIVE_LENGTH_MEASURE(1.0E-006),#345);
#230=LINE('',#346,#347);
#231=POINT_STYLE(' ',#348,POSITIVE_LENGTH_MEASURE(1.0E-006),#349);
#232=CARTESIAN_POINT('',(0.692820323027551,1.2,-6.55));
#233=SURFACE_STYLE_USAGE(.BOTH.,#350);
#234=FACE_OUTER_BOUND('',#351,.T.);
#235=PLANE('',#352);
#236=CURVE_STYLE('',#353,POSITIVE_LENGTH_MEASURE(1.0E-006),#354);
#237=LINE('',#355,#356);
#238=POINT_STYLE(' ',#357,POSITIVE_LENGTH_MEASURE(1.0E-006),#358);
#239=CARTESIAN_POINT('',(10.0458946838995,15.0,0.0));
#240=CURVE_STYLE('',#359,POSITIVE_LENGTH_MEASURE(1.0E-006),#360);
#241=LINE('',#361,#362);
#242=PRODUCT_CONTEXT('',#49,'mechanical');
#243=PRODUCT_DEFINITION_FORMATION_WITH_SPECIFIED_SOURCE(' ','NONE',#140,.NOT_KNOWN.);
#244=CARTESIAN_POINT('',(0.0,0.0,0.0));
#245=DIRECTION('',(0.0,0.0,1.0));
#246=DIRECTION('',(1.0,0.0,0.0));
#247= (NAMED_UNIT(#148)LENGTH_UNIT()SI_UNIT(.MILLI.,.METRE.));
#248=DRAUGHTING_PRE_DEFINED_CURVE_FONT('continuous');
#249=COLOUR_RGB('',0.800000011920929,0.800000011920929,0.800000011920929);
#250=CARTESIAN_POINT('',(0.692820323027551,1.2,0.0));
#251=VECTOR('',#364,1.0);
#252=DRAUGHTING_PRE_DEFINED_CURVE_FONT('continuous');
#253=COLOUR_RGB('',0.800000011920929,0.800000011920929,0.800000011920929);
#254=CARTESIAN_POINT('',(8.66025403793099,14.99999999995,0.0));
#255=VECTOR('',#365,1.0);
#256=PRE_DEFINED_MARKER('');
#257=COLOUR_RGB('',0.800000011920929,0.800000011920929,0.800000011920929);
#258=PRE_DEFINED_MARKER('');
#259=COLOUR_RGB('',0.800000011920929,0.800000011920929,0.800000011920929);
#260=SURFACE_SIDE_STYLE('',(#366));
#261=EDGE_LOOP('',(#367,#368,#369,#370));
#262=AXIS2_PLACEMENT_3D('',#371,#372,#373);
#263=PRE_DEFINED_MARKER('');
#264=COLOUR_RGB('',0.800000011920929,0.800000011920929,0.800000011920929);
#265=SURFACE_SIDE_STYLE('',(#374));
#266=EDGE_LOOP('',(#375,#376,#377,#378,#379,#380));
#267=AXIS2_PLACEMENT_3D('',#381,#382,#383);
#268=DRAUGHTING_PRE_DEFINED_CURVE_FONT('continuous');
#269=COLOUR_RGB('',0.800000011920929,0.800000011920929,0.800000011920929);
#270=CARTESIAN_POINT('',(8.66025403784439,15.0,0.0));
#271=VECTOR('',#384,1.0);
#272=PRE_DEFINED_MARKER('');
#273=COLOUR_RGB('',0.800000011920929,0.800000011920929,0.800000011920929);
#274=SURFACE_SIDE_STYLE('',(#385));
#275=EDGE_LOOP('',(#386,#387,#388,#389));
#276=AXIS2_PLACEMENT_3D('',#390,#391,#392);
#277=PRE_DEFINED_MARKER('');
#278=COLOUR_RGB('',0.800000011920929,0.800000011920929,0.800000011920929);
#279=DRAUGHTING_PRE_DEFINED_CURVE_FONT('continuous');
#280=COLOUR_RGB('',0.800000011920929,0.800000011920929,0.800000011920929);
#281=AXIS2_PLACEMENT_3D('',#393,#394,#395);
#282=SURFACE_SIDE_STYLE('',(#396));
#283=EDGE_LOOP('',(#397,#398,#399,#400));
#284=AXIS2_PLACEMENT_3D('',#401,#402,#403);
#285=DRAUGHTING_PRE_DEFINED_CURVE_FONT('continuous');
#286=COLOUR_RGB('',0.800000011920929,0.800000011920929,0.800000011920929);
#287=AXIS2_PLACEMENT_3D('',#404,#405,#406);
#288=DRAUGHTING_PRE_DEFINED_CURVE_FONT('continuous');
#289=COLOUR_RGB('',0.800000011920929,0.800000011920929,0.800000011920929);
#290=AXIS2_PLACEMENT_3D('',#407,#408,#409);
#291=PRE_DEFINED_MARKER('');
#292=COLOUR_RGB('',0.800000011920929,0.800000011920929,0.800000011920929);
#293=DRAUGHTING_PRE_DEFINED_CURVE_FONT('continuous');
#294=COLOUR_RGB('',0.800000011920929,0.800000011920929,0.800000011920929);
#295=AXIS2_PLACEMENT_3D('',#410,#411,#412);
#296=DRAUGHTING_PRE_DEFINED_CURVE_FONT('continuous');
#297=COLOUR_RGB('',0.800000011920929,0.800000011920929,0.800000011920929);
#298=AXIS2_PLACEMENT_3D('',#413,#414,#415);
#299=SURFACE_SIDE_STYLE('',(#416));
#300=EDGE_LOOP('',(#417,#418,#419,#420));
#301=AXIS2_PLACEMENT_3D('',#421,#422,#423);
#302=DRAUGHTING_PRE_DEFINED_CURVE_FONT('continuous');
#303=COLOUR_RGB('',0.800000011920929,0.800000011920929,0.800000011920929);
#304=CARTESIAN_POINT('',(8.66025403784439,15.0,-6.55));
#305=VECTOR('',#424,1.0);
#306=PRE_DEFINED_MARKER('');
#307=COLOUR_RGB('',0.800000011920929,0.800000011920929,0.800000011920929);
#308=DRAUGHTING_PRE_DEFINED_CURVE_FONT('continuous');
#309=COLOUR_RGB('',0.800000011920929,0.800000011920929,0.800000011920929);
#310=AXIS2_PLACEMENT_3D('',#425,#426,#427);
#311=SURFACE_SIDE_STYLE('',(#428));
#312=EDGE_LOOP('',(#429,#430,#431,#432));
#313=AXIS2_PLACEMENT_3D('',#433,#434,#435);
#314=DRAUGHTING_PRE_DEFINED_CURVE_FONT('continuous');
#315=COLOUR_RGB('',0.800000011920929,0.800000011920929,0.800000011920929);
#316=CARTESIAN_POINT('',(18.0133283987163,1.2,-6.55));
#317=VECTOR('',#436,1.0);
#318=SURFACE_SIDE_STYLE('',(#437));
#319=PRE_DEFINED_MARKER('');
#320=COLOUR_RGB('',0.800000011920929,0.800000011920929,0.800000011920929);
#321=DRAUGHTING_PRE_DEFINED_CURVE_FONT('continuous');
#322=COLOUR_RGB('',0.800000011920929,0.800000011920929,0.800000011920929);
#323=CARTESIAN_POINT('',(17.3205080756888,0.0,0.0));
#324=VECTOR('',#438,1.0);
#325=PRE_DEFINED_MARKER('');
#326=COLOUR_RGB('',0.800000011920929,0.800000011920929,0.800000011920929);
#327=SURFACE_SIDE_STYLE('',(#439));
#328=EDGE_LOOP('',(#440,#441,#442,#443));
#329=AXIS2_PLACEMENT_3D('',#444,#445,#446);
#330=DRAUGHTING_PRE_DEFINED_CURVE_FONT('continuous');
#331=COLOUR_RGB('',0.800000011920929,0.800000011920929,0.800000011920929);
#332=CARTESIAN_POINT('',(18.0133283986297,1.19999999995,0.0));
#333=VECTOR('',#447,1.0);
#334=DRAUGHTING_PRE_DEFINED_CURVE_FONT('continuous');
#335=COLOUR_RGB('',0.800000011920929,0.800000011920929,0.800000011920929);
#336=CARTESIAN_POINT('',(1.3856406460551,0.0,-6.55));
#337=VECTOR('',#448,1.0);
#338=DRAUGHTING_PRE_DEFINED_CURVE_FONT('continuous');
#339=COLOUR_RGB('',0.800000011920929,0.800000011920929,0.800000011920929);
#340=CARTESIAN_POINT('',(1.3856406460551,0.0,0.0));
#341=VECTOR('',#449,1.0);
#342=PRE_DEFINED_MARKER('');
#343=COLOUR_RGB('',0.800000011920929,0.800000011920929,0.800000011920929);
#344=DRAUGHTING_PRE_DEFINED_CURVE_FONT('continuous');
#345=COLOUR_RGB('',0.800000011920929,0.800000011920929,0.800000011920929);
#346=CARTESIAN_POINT('',(18.0133283987163,1.2,0.0));
#347=VECTOR('',#450,1.0);
#348=PRE_DEFINED_MARKER('');
#349=COLOUR_RGB('',0.800000011920929,0.800000011920929,0.800000011920929);
#350=SURFACE_SIDE_STYLE('',(#451));
#351=EDGE_LOOP('',(#452,#453,#454,#455,#456,#457));
#352=AXIS2_PLACEMENT_3D('',#458,#459,#460);
#353=DRAUGHTING_PRE_DEFINED_CURVE_FONT('continuous');
#354=COLOUR_RGB('',0.800000011920929,0.800000011920929,0.800000011920929);
#355=CARTESIAN_POINT('',(1.3856406460551,0.0,0.0));
#356=VECTOR('',#461,1.0);
#357=PRE_DEFINED_MARKER('');
#358=COLOUR_RGB('',0.800000011920929,0.800000011920929,0.800000011920929);
#359=DRAUGHTING_PRE_DEFINED_CURVE_FONT('continuous');
#360=COLOUR_RGB('',0.800000011920929,0.800000011920929,0.800000011920929);
#361=CARTESIAN_POINT('',(10.0458946838995,15.0,0.0));
#362=VECTOR('',#462,1.0);
#364=DIRECTION('',(0.0,0.0,-1.0));
#365=DIRECTION('',(0.0,0.0,-1.0));
#366=SURFACE_STYLE_FILL_AREA(#463);
#367=ORIENTED_EDGE('',*,*,#85,.T.);
#368=ORIENTED_EDGE('',*,*,#121,.F.);
#369=ORIENTED_EDGE('',*,*,#105,.F.);
#370=ORIENTED_EDGE('',*,*,#115,.T.);
#371=CARTESIAN_POINT('',(17.3205080755156,0.800000000100001,0.0));
#372=DIRECTION('',(-0.0,-0.0,1.0));
#373=DIRECTION('',(2.16506812478201E-010,-1.0,0.0));
#374=SURFACE_STYLE_FILL_AREA(#464);
#375=ORIENTED_EDGE('',*,*,#125,.T.);
#376=ORIENTED_EDGE('',*,*,#105,.T.);
#377=ORIENTED_EDGE('',*,*,#129,.T.);
#378=ORIENTED_EDGE('',*,*,#91,.T.);
#379=ORIENTED_EDGE('',*,*,#77,.T.);
#380=ORIENTED_EDGE('',*,*,#97,.T.);
#381=CARTESIAN_POINT('',(9.35307436087194,5.4,0.0));
#382=DIRECTION('',(0.0,0.0,1.0));
#383=DIRECTION('',(1.0,0.0,0.0));
#384=DIRECTION('',(-0.5,-0.866025403784439,0.0));
#385=SURFACE_STYLE_FILL_AREA(#465);
#386=ORIENTED_EDGE('',*,*,#101,.T.);
#387=ORIENTED_EDGE('',*,*,#63,.F.);
#388=ORIENTED_EDGE('',*,*,#77,.F.);
#389=ORIENTED_EDGE('',*,*,#65,.T.);
#390=CARTESIAN_POINT('',(8.66025403793099,14.99999999995,0.0));
#391=DIRECTION('',(-0.866025403784439,0.5,0.0));
#392=DIRECTION('',(0.5,0.866025403784439,-0.0));
#393=CARTESIAN_POINT('',(17.3205080755156,0.800000000100001,-6.55));
#394=DIRECTION('',(0.0,0.0,1.0));
#395=DIRECTION('',(2.16506812478201E-010,-1.0,0.0));
#396=SURFACE_STYLE_FILL_AREA(#466);
#397=ORIENTED_EDGE('',*,*,#123,.T.);
#398=ORIENTED_EDGE('',*,*,#115,.F.);
#399=ORIENTED_EDGE('',*,*,#125,.F.);
#400=ORIENTED_EDGE('',*,*,#135,.T.);
#401=CARTESIAN_POINT('',(1.3856406460551,0.0,0.0));
#402=DIRECTION('',(0.0,-1.0,-0.0));
#403=DIRECTION('',(-1.0,0.0,-0.0));
#404=CARTESIAN_POINT('',(9.35307436087194,14.5999999998,-6.55));
#405=DIRECTION('',(0.0,-0.0,1.0));
#406=DIRECTION('',(0.866025403676183,0.500000000187505,0.0));
#407=CARTESIAN_POINT('',(9.35307436087194,14.5999999998,0.0));
#408=DIRECTION('',(0.0,-0.0,1.0));
#409=DIRECTION('',(0.866025403676183,0.500000000187505,0.0));
#410=CARTESIAN_POINT('',(1.38564064622831,0.8000000001,-6.55));
#411=DIRECTION('',(0.0,0.0,1.0));
#412=DIRECTION('',(-0.866025403892692,0.499999999812499,0.0));
#413=CARTESIAN_POINT('',(1.38564064622831,0.8000000001,0.0));
#414=DIRECTION('',(0.0,0.0,1.0));
#415=DIRECTION('',(-0.866025403892692,0.499999999812499,0.0));
#416=SURFACE_STYLE_FILL_AREA(#467);
#417=ORIENTED_EDGE('',*,*,#95,.T.);
#418=ORIENTED_EDGE('',*,*,#135,.F.);
#419=ORIENTED_EDGE('',*,*,#97,.F.);
#420=ORIENTED_EDGE('',*,*,#63,.T.);
#421=CARTESIAN_POINT('',(1.38564064622831,0.8000000001,0.0));
#422=DIRECTION('',(-0.0,-0.0,1.0));
#423=DIRECTION('',(-0.866025403892692,0.499999999812499,0.0));
#424=DIRECTION('',(-0.5,-0.866025403784439,0.0));
#425=CARTESIAN_POINT('',(17.3205080755156,0.800000000100001,0.0));
#426=DIRECTION('',(0.0,0.0,1.0));
#427=DIRECTION('',(2.16506812478201E-010,-1.0,0.0));
#428=SURFACE_STYLE_FILL_AREA(#468);
#429=ORIENTED_EDGE('',*,*,#89,.T.);
#430=ORIENTED_EDGE('',*,*,#65,.F.);
#431=ORIENTED_EDGE('',*,*,#91,.F.);
#432=ORIENTED_EDGE('',*,*,#139,.T.);
#433=CARTESIAN_POINT('',(9.35307436087194,14.5999999998,0.0));
#434=DIRECTION('',(-0.0,-0.0,1.0));
#435=DIRECTION('',(0.866025403676183,0.500000000187505,0.0));
#436=DIRECTION('',(-0.5,0.866025403784439,0.0));
#437=SURFACE_STYLE_FILL_AREA(#469);
#438=DIRECTION('',(0.0,0.0,-1.0));
#439=SURFACE_STYLE_FILL_AREA(#470);
#440=ORIENTED_EDGE('',*,*,#109,.T.);
#441=ORIENTED_EDGE('',*,*,#139,.F.);
#442=ORIENTED_EDGE('',*,*,#129,.F.);
#443=ORIENTED_EDGE('',*,*,#121,.T.);
#444=CARTESIAN_POINT('',(18.0133283986297,1.19999999995,0.0));
#445=DIRECTION('',(0.866025403784439,0.5,0.0));
#446=DIRECTION('',(0.5,-0.866025403784439,-0.0));
#447=DIRECTION('',(0.0,0.0,-1.0));
#448=DIRECTION('',(1.0,0.0,0.0));
#449=DIRECTION('',(1.0,0.0,0.0));
#450=DIRECTION('',(-0.5,0.866025403784439,0.0));
#451=SURFACE_STYLE_FILL_AREA(#471);
#452=ORIENTED_EDGE('',*,*,#85,.F.);
#453=ORIENTED_EDGE('',*,*,#123,.F.);
#454=ORIENTED_EDGE('',*,*,#95,.F.);
#455=ORIENTED_EDGE('',*,*,#101,.F.);
#456=ORIENTED_EDGE('',*,*,#89,.F.);
#457=ORIENTED_EDGE('',*,*,#109,.F.);
#458=CARTESIAN_POINT('',(9.35307436087194,5.4,-6.55));
#459=DIRECTION('',(0.0,0.0,1.0));
#460=DIRECTION('',(1.0,0.0,0.0));
#461=DIRECTION('',(0.0,0.0,-1.0));
#462=DIRECTION('',(0.0,0.0,-1.0));
#463=FILL_AREA_STYLE('',(#472));
#464=FILL_AREA_STYLE('',(#473));
#465=FILL_AREA_STYLE('',(#474));
#466=FILL_AREA_STYLE('',(#475));
#467=FILL_AREA_STYLE('',(#476));
#468=FILL_AREA_STYLE('',(#477));
#469=FILL_AREA_STYLE('',(#478));
#470=FILL_AREA_STYLE('',(#479));
#471=FILL_AREA_STYLE('',(#480));
#472=FILL_AREA_STYLE_COLOUR('',#481);
#473=FILL_AREA_STYLE_COLOUR('',#482);
#474=FILL_AREA_STYLE_COLOUR('',#483);
#475=FILL_AREA_STYLE_COLOUR('',#484);
#476=FILL_AREA_STYLE_COLOUR('',#485);
#477=FILL_AREA_STYLE_COLOUR('',#486);
#478=FILL_AREA_STYLE_COLOUR('',#487);
#479=FILL_AREA_STYLE_COLOUR('',#488);
#480=FILL_AREA_STYLE_COLOUR('',#489);
#481=COLOUR_RGB('',0.800000011920929,0.800000011920929,0.800000011920929);
#482=COLOUR_RGB('',0.800000011920929,0.800000011920929,0.800000011920929);
#483=COLOUR_RGB('',0.800000011920929,0.800000011920929,0.800000011920929);
#484=COLOUR_RGB('',0.800000011920929,0.800000011920929,0.800000011920929);
#485=COLOUR_RGB('',0.800000011920929,0.800000011920929,0.800000011920929);
#486=COLOUR_RGB('',0.800000011920929,0.800000011920929,0.800000011920929);
#487=COLOUR_RGB('',0.800000011920929,0.800000011920929,0.800000011920929);
#488=COLOUR_RGB('',0.800000011920929,0.800000011920929,0.800000011920929);
#489=COLOUR_RGB('',0.800000011920929,0.800000011920929,0.800000011920929);
#490=AXIS2_PLACEMENT_3D('PCS',#491,#492,#493);
#491=CARTESIAN_POINT('',(0.0,0.0,0.0));
#492=DIRECTION('',(0.0,0.0,1.0));
#493=DIRECTION('',(1.0,0.0,0.0));
#494=AXIS2_PLACEMENT_3D('MCS',#495,#496,#497);
#495=CARTESIAN_POINT('',(9.35307436,5.4,0.0));
#496=DIRECTION('',(0.0,0.0,1.0));
#497=DIRECTION('',(1.0,0.0,0.0));
#498=CONSTRUCTIVE_GEOMETRY_REPRESENTATION_RELATIONSHIP('coordinate systems',$,#53,#499);
#499=CONSTRUCTIVE_GEOMETRY_REPRESENTATION('coordinate systems',(#490,#494),#6);
ENDSEC;
END-ISO-10303-21;
