ISO-10303-21;
HEADER;
FILE_DESCRIPTION(('no description'),'unknown implementation level');
FILE_NAME('solidWZLZWr1vWa5C7XeWiqbvtTcBOHY_1.STP','  ',('CIMSOURCE GmbH'),('CADClick - KiM GmbH - www.kimweb.de'),'unknown preprocess','ACIS','unknown authorization');
FILE_SCHEMA(('automotive_design'));
ENDSEC;
DATA;
#1=MECHANICAL_DESIGN_GEOMETRIC_PRESENTATION_REPRESENTATION(' ',(#10,#11,#12,#13,#14,#15,#16,#17,#18,#19,#20,#21,#22,#23,#24,#25,#26,#27,#28,#29,#30,#31,#32,#33,#34,#35,#36,#37,#38,#39,#40,#41,#42,#43,#44,#45,#46,#47,#48),#6);
#2=PRODUCT_DEFINITION_CONTEXT('',#49,'design');
#3=APPLICATION_PROTOCOL_DEFINITION('INTERNATIONAL STANDARD','automotive_design',1994,#49);
#4=PRODUCT_CATEGORY_RELATIONSHIP('NONE','NONE',#50,#51);
#5=SHAPE_DEFINITION_REPRESENTATION(#52,#53);
#6= (GEOMETRIC_REPRESENTATION_CONTEXT(3)GLOBAL_UNCERTAINTY_ASSIGNED_CONTEXT((#56))GLOBAL_UNIT_ASSIGNED_CONTEXT((#58,#59,#60))REPRESENTATION_CONTEXT('NONE','WORKSPACE'));
#10=STYLED_ITEM('',(#62),#63);
#11=STYLED_ITEM('',(#64),#65);
#12=STYLED_ITEM('',(#66),#67);
#13=STYLED_ITEM('',(#68),#69);
#14=STYLED_ITEM('',(#70),#71);
#15=STYLED_ITEM('',(#72),#73);
#16=STYLED_ITEM('',(#74),#75);
#17=STYLED_ITEM('',(#76),#77);
#18=STYLED_ITEM('',(#78),#79);
#19=STYLED_ITEM('',(#80),#81);
#20=STYLED_ITEM('',(#82),#83);
#21=STYLED_ITEM('',(#84),#85);
#22=STYLED_ITEM('',(#86),#87);
#23=STYLED_ITEM('',(#88),#89);
#24=STYLED_ITEM('',(#90),#91);
#25=STYLED_ITEM('',(#92),#93);
#26=STYLED_ITEM('',(#94),#95);
#27=STYLED_ITEM('',(#96),#97);
#28=STYLED_ITEM('',(#98),#99);
#29=STYLED_ITEM('',(#100),#101);
#30=STYLED_ITEM('',(#102),#103);
#31=STYLED_ITEM('',(#104),#105);
#32=STYLED_ITEM('',(#106),#107);
#33=STYLED_ITEM('',(#108),#109);
#34=STYLED_ITEM('',(#110),#111);
#35=STYLED_ITEM('',(#112),#113);
#36=STYLED_ITEM('',(#114),#115);
#37=STYLED_ITEM('',(#116),#117);
#38=STYLED_ITEM('',(#118),#119);
#39=STYLED_ITEM('',(#120),#121);
#40=STYLED_ITEM('',(#122),#123);
#41=STYLED_ITEM('',(#124),#125);
#42=STYLED_ITEM('',(#126),#127);
#43=STYLED_ITEM('',(#128),#129);
#44=STYLED_ITEM('',(#130),#131);
#45=STYLED_ITEM('',(#132),#133);
#46=STYLED_ITEM('',(#134),#135);
#47=STYLED_ITEM('',(#136),#137);
#48=STYLED_ITEM('',(#138),#139);
#49=APPLICATION_CONTEXT(' ');
#50=PRODUCT_CATEGORY('part','NONE');
#51=PRODUCT_RELATED_PRODUCT_CATEGORY('detail',' ',(#140));
#52=PRODUCT_DEFINITION_SHAPE('NONE','NONE',#141);
#53=ADVANCED_BREP_SHAPE_REPRESENTATION('1',(#135,#142),#6);
#56=UNCERTAINTY_MEASURE_WITH_UNIT(LENGTH_MEASURE(1.0E-006),#58,'','');
#58= (CONVERSION_BASED_UNIT('MILLIMETRE',#145)LENGTH_UNIT()NAMED_UNIT(#148));
#59= (NAMED_UNIT(#150)PLANE_ANGLE_UNIT()SI_UNIT($,.RADIAN.));
#60= (NAMED_UNIT(#150)SOLID_ANGLE_UNIT()SI_UNIT($,.STERADIAN.));
#62=PRESENTATION_STYLE_ASSIGNMENT((#156));
#63=EDGE_CURVE('',#73,#83,#157,.T.);
#64=PRESENTATION_STYLE_ASSIGNMENT((#158));
#65=EDGE_CURVE('',#89,#73,#159,.T.);
#66=PRESENTATION_STYLE_ASSIGNMENT((#160));
#67=ADVANCED_FACE('',(#161),#162,.T.);
#68=PRESENTATION_STYLE_ASSIGNMENT((#163));
#69=EDGE_CURVE('',#119,#109,#164,.T.);
#70=PRESENTATION_STYLE_ASSIGNMENT((#165));
#71=ADVANCED_FACE('',(#166),#167,.T.);
#72=PRESENTATION_STYLE_ASSIGNMENT((#168));
#73=VERTEX_POINT('',#169);
#74=PRESENTATION_STYLE_ASSIGNMENT((#170));
#75=EDGE_CURVE('',#125,#93,#171,.T.);
#76=PRESENTATION_STYLE_ASSIGNMENT((#172));
#77=EDGE_CURVE('',#131,#107,#173,.T.);
#78=PRESENTATION_STYLE_ASSIGNMENT((#174));
#79=EDGE_CURVE('',#125,#87,#175,.T.);
#80=PRESENTATION_STYLE_ASSIGNMENT((#176));
#81=ADVANCED_FACE('',(#177),#178,.T.);
#82=PRESENTATION_STYLE_ASSIGNMENT((#179));
#83=VERTEX_POINT('',#180);
#84=PRESENTATION_STYLE_ASSIGNMENT((#181));
#85=ADVANCED_FACE('',(#182),#183,.T.);
#86=PRESENTATION_STYLE_ASSIGNMENT((#184));
#87=VERTEX_POINT('',#185);
#88=PRESENTATION_STYLE_ASSIGNMENT((#186));
#89=VERTEX_POINT('',#187);
#90=PRESENTATION_STYLE_ASSIGNMENT((#188));
#91=EDGE_CURVE('',#137,#89,#189,.T.);
#92=PRESENTATION_STYLE_ASSIGNMENT((#190));
#93=VERTEX_POINT('',#191);
#94=PRESENTATION_STYLE_ASSIGNMENT((#192));
#95=EDGE_CURVE('',#93,#137,#193,.T.);
#96=PRESENTATION_STYLE_ASSIGNMENT((#194));
#97=EDGE_CURVE('',#73,#119,#195,.T.);
#98=PRESENTATION_STYLE_ASSIGNMENT((#196));
#99=EDGE_CURVE('',#109,#87,#197,.T.);
#100=PRESENTATION_STYLE_ASSIGNMENT((#198));
#101=ADVANCED_FACE('',(#199),#200,.T.);
#102=PRESENTATION_STYLE_ASSIGNMENT((#201));
#103=EDGE_CURVE('',#119,#125,#202,.T.);
#104=PRESENTATION_STYLE_ASSIGNMENT((#203));
#105=VERTEX_POINT('',#204);
#106=PRESENTATION_STYLE_ASSIGNMENT((#205));
#107=VERTEX_POINT('',#206);
#108=PRESENTATION_STYLE_ASSIGNMENT((#207));
#109=VERTEX_POINT('',#208);
#110=PRESENTATION_STYLE_ASSIGNMENT((#209));
#111=ADVANCED_FACE('',(#210),#211,.T.);
#112=PRESENTATION_STYLE_ASSIGNMENT((#212));
#113=ADVANCED_FACE('',(#213),#214,.T.);
#114=PRESENTATION_STYLE_ASSIGNMENT((#215));
#115=EDGE_CURVE('',#107,#83,#216,.T.);
#116=PRESENTATION_STYLE_ASSIGNMENT((#217));
#117=EDGE_CURVE('',#89,#107,#218,.T.);
#118=PRESENTATION_STYLE_ASSIGNMENT((#219));
#119=VERTEX_POINT('',#220);
#120=PRESENTATION_STYLE_ASSIGNMENT((#221));
#121=EDGE_CURVE('',#83,#109,#222,.T.);
#122=PRESENTATION_STYLE_ASSIGNMENT((#223));
#123=ADVANCED_FACE('',(#224),#225,.F.);
#124=PRESENTATION_STYLE_ASSIGNMENT((#226));
#125=VERTEX_POINT('',#227);
#126=PRESENTATION_STYLE_ASSIGNMENT((#228));
#127=EDGE_CURVE('',#87,#105,#229,.T.);
#128=PRESENTATION_STYLE_ASSIGNMENT((#230));
#129=EDGE_CURVE('',#93,#105,#231,.T.);
#130=PRESENTATION_STYLE_ASSIGNMENT((#232));
#131=VERTEX_POINT('',#233);
#132=PRESENTATION_STYLE_ASSIGNMENT((#234));
#133=EDGE_CURVE('',#105,#131,#235,.T.);
#134=PRESENTATION_STYLE_ASSIGNMENT((#236));
#135=MANIFOLD_SOLID_BREP('1',#237);
#136=PRESENTATION_STYLE_ASSIGNMENT((#238));
#137=VERTEX_POINT('',#239);
#138=PRESENTATION_STYLE_ASSIGNMENT((#240));
#139=EDGE_CURVE('',#137,#131,#241,.T.);
#140=PRODUCT('1','1','PART-1-DESC',(#242));
#141=PRODUCT_DEFINITION('NONE','NONE',#243,#2);
#142=AXIS2_PLACEMENT_3D('',#244,#245,#246);
#145=LENGTH_MEASURE_WITH_UNIT(LENGTH_MEASURE(1.0),#247);
#148=DIMENSIONAL_EXPONENTS(1.0,0.0,0.0,0.0,0.0,0.0,0.0);
#150=DIMENSIONAL_EXPONENTS(0.0,0.0,0.0,0.0,0.0,0.0,0.0);
#156=CURVE_STYLE('',#248,POSITIVE_LENGTH_MEASURE(1.0E-006),#249);
#157=LINE('',#250,#251);
#158=CURVE_STYLE('',#252,POSITIVE_LENGTH_MEASURE(1.0E-006),#253);
#159=CIRCLE('',#254,0.800000000000001);
#160=SURFACE_STYLE_USAGE(.BOTH.,#255);
#161=FACE_OUTER_BOUND('',#256,.T.);
#162=CYLINDRICAL_SURFACE('',#257,0.800000000000002);
#163=CURVE_STYLE('',#258,POSITIVE_LENGTH_MEASURE(1.0E-006),#259);
#164=LINE('',#260,#261);
#165=SURFACE_STYLE_USAGE(.BOTH.,#262);
#166=FACE_OUTER_BOUND('',#263,.T.);
#167=PLANE('',#264);
#168=POINT_STYLE(' ',#265,POSITIVE_LENGTH_MEASURE(1.0E-006),#266);
#169=CARTESIAN_POINT('',(18.0133283986297,1.19999999995,0.0));
#170=CURVE_STYLE('',#267,POSITIVE_LENGTH_MEASURE(1.0E-006),#268);
#171=LINE('',#269,#270);
#172=CURVE_STYLE('',#271,POSITIVE_LENGTH_MEASURE(1.0E-006),#272);
#173=LINE('',#273,#274);
#174=CURVE_STYLE('',#275,POSITIVE_LENGTH_MEASURE(1.0E-006),#276);
#175=LINE('',#277,#278);
#176=SURFACE_STYLE_USAGE(.BOTH.,#279);
#177=FACE_OUTER_BOUND('',#280,.T.);
#178=CYLINDRICAL_SURFACE('',#281,0.8);
#179=POINT_STYLE(' ',#282,POSITIVE_LENGTH_MEASURE(1.0E-006),#283);
#180=CARTESIAN_POINT('',(18.0133283986297,1.19999999995,-6.55));
#181=SURFACE_STYLE_USAGE(.BOTH.,#284);
#182=FACE_OUTER_BOUND('',#285,.T.);
#183=PLANE('',#286);
#184=POINT_STYLE(' ',#287,POSITIVE_LENGTH_MEASURE(1.0E-006),#288);
#185=CARTESIAN_POINT('',(8.66025403793099,14.99999999995,-6.55));
#186=POINT_STYLE(' ',#289,POSITIVE_LENGTH_MEASURE(1.0E-006),#290);
#187=CARTESIAN_POINT('',(17.3205080756888,0.0,0.0));
#188=CURVE_STYLE('',#291,POSITIVE_LENGTH_MEASURE(1.0E-006),#292);
#189=LINE('',#293,#294);
#190=POINT_STYLE(' ',#295,POSITIVE_LENGTH_MEASURE(1.0E-006),#296);
#191=CARTESIAN_POINT('',(0.692820323027551,1.2,0.0));
#192=CURVE_STYLE('',#297,POSITIVE_LENGTH_MEASURE(1.0E-006),#298);
#193=CIRCLE('',#299,0.8);
#194=CURVE_STYLE('',#300,POSITIVE_LENGTH_MEASURE(1.0E-006),#301);
#195=LINE('',#302,#303);
#196=CURVE_STYLE('',#304,POSITIVE_LENGTH_MEASURE(1.0E-006),#305);
#197=CIRCLE('',#306,0.800000000000002);
#198=SURFACE_STYLE_USAGE(.BOTH.,#307);
#199=FACE_OUTER_BOUND('',#308,.T.);
#200=CYLINDRICAL_SURFACE('',#309,0.800000000000001);
#201=CURVE_STYLE('',#310,POSITIVE_LENGTH_MEASURE(1.0E-006),#311);
#202=CIRCLE('',#312,0.800000000000002);
#203=POINT_STYLE(' ',#313,POSITIVE_LENGTH_MEASURE(1.0E-006),#314);
#204=CARTESIAN_POINT('',(0.692820323027551,1.2,-6.55));
#205=POINT_STYLE(' ',#315,POSITIVE_LENGTH_MEASURE(1.0E-006),#316);
#206=CARTESIAN_POINT('',(17.3205080756888,0.0,-6.55));
#207=POINT_STYLE(' ',#317,POSITIVE_LENGTH_MEASURE(1.0E-006),#318);
#208=CARTESIAN_POINT('',(10.0458946838995,15.0,-6.55));
#209=SURFACE_STYLE_USAGE(.BOTH.,#319);
#210=FACE_OUTER_BOUND('',#320,.T.);
#211=PLANE('',#321);
#212=SURFACE_STYLE_USAGE(.BOTH.,#322);
#213=FACE_OUTER_BOUND('',#323,.T.);
#214=PLANE('',#324);
#215=CURVE_STYLE('',#325,POSITIVE_LENGTH_MEASURE(1.0E-006),#326);
#216=CIRCLE('',#327,0.800000000000001);
#217=CURVE_STYLE('',#328,POSITIVE_LENGTH_MEASURE(1.0E-006),#329);
#218=LINE('',#330,#331);
#219=POINT_STYLE(' ',#332,POSITIVE_LENGTH_MEASURE(1.0E-006),#333);
#220=CARTESIAN_POINT('',(10.0458946838995,15.0,0.0));
#221=CURVE_STYLE('',#334,POSITIVE_LENGTH_MEASURE(1.0E-006),#335);
#222=LINE('',#336,#337);
#223=SURFACE_STYLE_USAGE(.BOTH.,#338);
#224=FACE_OUTER_BOUND('',#339,.T.);
#225=PLANE('',#340);
#226=POINT_STYLE(' ',#341,POSITIVE_LENGTH_MEASURE(1.0E-006),#342);
#227=CARTESIAN_POINT('',(8.66025403793099,14.99999999995,0.0));
#228=CURVE_STYLE('',#343,POSITIVE_LENGTH_MEASURE(1.0E-006),#344);
#229=LINE('',#345,#346);
#230=CURVE_STYLE('',#347,POSITIVE_LENGTH_MEASURE(1.0E-006),#348);
#231=LINE('',#349,#350);
#232=POINT_STYLE(' ',#351,POSITIVE_LENGTH_MEASURE(1.0E-006),#352);
#233=CARTESIAN_POINT('',(1.3856406460551,0.0,-6.55));
#234=CURVE_STYLE('',#353,POSITIVE_LENGTH_MEASURE(1.0E-006),#354);
#235=CIRCLE('',#355,0.8);
#236=SURFACE_STYLE_USAGE(.BOTH.,#356);
#237=CLOSED_SHELL('',(#101,#113,#67,#111,#81,#71,#123,#85));
#238=POINT_STYLE(' ',#357,POSITIVE_LENGTH_MEASURE(1.0E-006),#358);
#239=CARTESIAN_POINT('',(1.3856406460551,0.0,0.0));
#240=CURVE_STYLE('',#359,POSITIVE_LENGTH_MEASURE(1.0E-006),#360);
#241=LINE('',#361,#362);
#242=PRODUCT_CONTEXT('',#49,'mechanical');
#243=PRODUCT_DEFINITION_FORMATION_WITH_SPECIFIED_SOURCE(' ','NONE',#140,.NOT_KNOWN.);
#244=CARTESIAN_POINT('',(0.0,0.0,0.0));
#245=DIRECTION('',(0.0,0.0,1.0));
#246=DIRECTION('',(1.0,0.0,0.0));
#247= (NAMED_UNIT(#148)LENGTH_UNIT()SI_UNIT(.MILLI.,.METRE.));
#248=DRAUGHTING_PRE_DEFINED_CURVE_FONT('continuous');
#249=COLOUR_RGB('',0.800000011920929,0.800000011920929,0.800000011920929);
#250=CARTESIAN_POINT('',(18.0133283986297,1.19999999995,0.0));
#251=VECTOR('',#364,1.0);
#252=DRAUGHTING_PRE_DEFINED_CURVE_FONT('continuous');
#253=COLOUR_RGB('',0.800000011920929,0.800000011920929,0.800000011920929);
#254=AXIS2_PLACEMENT_3D('',#365,#366,#367);
#255=SURFACE_SIDE_STYLE('',(#368));
#256=EDGE_LOOP('',(#369,#370,#371,#372));
#257=AXIS2_PLACEMENT_3D('',#373,#374,#375);
#258=DRAUGHTING_PRE_DEFINED_CURVE_FONT('continuous');
#259=COLOUR_RGB('',0.800000011920929,0.800000011920929,0.800000011920929);
#260=CARTESIAN_POINT('',(10.0458946838995,15.0,0.0));
#261=VECTOR('',#376,1.0);
#262=SURFACE_SIDE_STYLE('',(#377));
#263=EDGE_LOOP('',(#378,#379,#380,#381));
#264=AXIS2_PLACEMENT_3D('',#382,#383,#384);
#265=PRE_DEFINED_MARKER('');
#266=COLOUR_RGB('',0.800000011920929,0.800000011920929,0.800000011920929);
#267=DRAUGHTING_PRE_DEFINED_CURVE_FONT('continuous');
#268=COLOUR_RGB('',0.800000011920929,0.800000011920929,0.800000011920929);
#269=CARTESIAN_POINT('',(8.66025403784439,15.0,0.0));
#270=VECTOR('',#385,1.0);
#271=DRAUGHTING_PRE_DEFINED_CURVE_FONT('continuous');
#272=COLOUR_RGB('',0.800000011920929,0.800000011920929,0.800000011920929);
#273=CARTESIAN_POINT('',(1.3856406460551,0.0,-6.55));
#274=VECTOR('',#386,1.0);
#275=DRAUGHTING_PRE_DEFINED_CURVE_FONT('continuous');
#276=COLOUR_RGB('',0.800000011920929,0.800000011920929,0.800000011920929);
#277=CARTESIAN_POINT('',(8.66025403793099,14.99999999995,0.0));
#278=VECTOR('',#387,1.0);
#279=SURFACE_SIDE_STYLE('',(#388));
#280=EDGE_LOOP('',(#389,#390,#391,#392));
#281=AXIS2_PLACEMENT_3D('',#393,#394,#395);
#282=PRE_DEFINED_MARKER('');
#283=COLOUR_RGB('',0.800000011920929,0.800000011920929,0.800000011920929);
#284=SURFACE_SIDE_STYLE('',(#396));
#285=EDGE_LOOP('',(#397,#398,#399,#400,#401,#402));
#286=AXIS2_PLACEMENT_3D('',#403,#404,#405);
#287=PRE_DEFINED_MARKER('');
#288=COLOUR_RGB('',0.800000011920929,0.800000011920929,0.800000011920929);
#289=PRE_DEFINED_MARKER('');
#290=COLOUR_RGB('',0.800000011920929,0.800000011920929,0.800000011920929);
#291=DRAUGHTING_PRE_DEFINED_CURVE_FONT('continuous');
#292=COLOUR_RGB('',0.800000011920929,0.800000011920929,0.800000011920929);
#293=CARTESIAN_POINT('',(1.3856406460551,0.0,0.0));
#294=VECTOR('',#406,1.0);
#295=PRE_DEFINED_MARKER('');
#296=COLOUR_RGB('',0.800000011920929,0.800000011920929,0.800000011920929);
#297=DRAUGHTING_PRE_DEFINED_CURVE_FONT('continuous');
#298=COLOUR_RGB('',0.800000011920929,0.800000011920929,0.800000011920929);
#299=AXIS2_PLACEMENT_3D('',#407,#408,#409);
#300=DRAUGHTING_PRE_DEFINED_CURVE_FONT('continuous');
#301=COLOUR_RGB('',0.800000011920929,0.800000011920929,0.800000011920929);
#302=CARTESIAN_POINT('',(18.0133283987163,1.2,0.0));
#303=VECTOR('',#410,1.0);
#304=DRAUGHTING_PRE_DEFINED_CURVE_FONT('continuous');
#305=COLOUR_RGB('',0.800000011920929,0.800000011920929,0.800000011920929);
#306=AXIS2_PLACEMENT_3D('',#411,#412,#413);
#307=SURFACE_SIDE_STYLE('',(#414));
#308=EDGE_LOOP('',(#415,#416,#417,#418));
#309=AXIS2_PLACEMENT_3D('',#419,#420,#421);
#310=DRAUGHTING_PRE_DEFINED_CURVE_FONT('continuous');
#311=COLOUR_RGB('',0.800000011920929,0.800000011920929,0.800000011920929);
#312=AXIS2_PLACEMENT_3D('',#422,#423,#424);
#313=PRE_DEFINED_MARKER('');
#314=COLOUR_RGB('',0.800000011920929,0.800000011920929,0.800000011920929);
#315=PRE_DEFINED_MARKER('');
#316=COLOUR_RGB('',0.800000011920929,0.800000011920929,0.800000011920929);
#317=PRE_DEFINED_MARKER('');
#318=COLOUR_RGB('',0.800000011920929,0.800000011920929,0.800000011920929);
#319=SURFACE_SIDE_STYLE('',(#425));
#320=EDGE_LOOP('',(#426,#427,#428,#429));
#321=AXIS2_PLACEMENT_3D('',#430,#431,#432);
#322=SURFACE_SIDE_STYLE('',(#433));
#323=EDGE_LOOP('',(#434,#435,#436,#437));
#324=AXIS2_PLACEMENT_3D('',#438,#439,#440);
#325=DRAUGHTING_PRE_DEFINED_CURVE_FONT('continuous');
#326=COLOUR_RGB('',0.800000011920929,0.800000011920929,0.800000011920929);
#327=AXIS2_PLACEMENT_3D('',#441,#442,#443);
#328=DRAUGHTING_PRE_DEFINED_CURVE_FONT('continuous');
#329=COLOUR_RGB('',0.800000011920929,0.800000011920929,0.800000011920929);
#330=CARTESIAN_POINT('',(17.3205080756888,0.0,0.0));
#331=VECTOR('',#444,1.0);
#332=PRE_DEFINED_MARKER('');
#333=COLOUR_RGB('',0.800000011920929,0.800000011920929,0.800000011920929);
#334=DRAUGHTING_PRE_DEFINED_CURVE_FONT('continuous');
#335=COLOUR_RGB('',0.800000011920929,0.800000011920929,0.800000011920929);
#336=CARTESIAN_POINT('',(18.0133283987163,1.2,-6.55));
#337=VECTOR('',#445,1.0);
#338=SURFACE_SIDE_STYLE('',(#446));
#339=EDGE_LOOP('',(#447,#448,#449,#450,#451,#452));
#340=AXIS2_PLACEMENT_3D('',#453,#454,#455);
#341=PRE_DEFINED_MARKER('');
#342=COLOUR_RGB('',0.800000011920929,0.800000011920929,0.800000011920929);
#343=DRAUGHTING_PRE_DEFINED_CURVE_FONT('continuous');
#344=COLOUR_RGB('',0.800000011920929,0.800000011920929,0.800000011920929);
#345=CARTESIAN_POINT('',(8.66025403784439,15.0,-6.55));
#346=VECTOR('',#456,1.0);
#347=DRAUGHTING_PRE_DEFINED_CURVE_FONT('continuous');
#348=COLOUR_RGB('',0.800000011920929,0.800000011920929,0.800000011920929);
#349=CARTESIAN_POINT('',(0.692820323027551,1.2,0.0));
#350=VECTOR('',#457,1.0);
#351=PRE_DEFINED_MARKER('');
#352=COLOUR_RGB('',0.800000011920929,0.800000011920929,0.800000011920929);
#353=DRAUGHTING_PRE_DEFINED_CURVE_FONT('continuous');
#354=COLOUR_RGB('',0.800000011920929,0.800000011920929,0.800000011920929);
#355=AXIS2_PLACEMENT_3D('',#458,#459,#460);
#356=SURFACE_SIDE_STYLE('',(#461));
#357=PRE_DEFINED_MARKER('');
#358=COLOUR_RGB('',0.800000011920929,0.800000011920929,0.800000011920929);
#359=DRAUGHTING_PRE_DEFINED_CURVE_FONT('continuous');
#360=COLOUR_RGB('',0.800000011920929,0.800000011920929,0.800000011920929);
#361=CARTESIAN_POINT('',(1.3856406460551,0.0,0.0));
#362=VECTOR('',#462,1.0);
#364=DIRECTION('',(0.0,0.0,-1.0));
#365=CARTESIAN_POINT('',(17.3205080755156,0.800000000100001,0.0));
#366=DIRECTION('',(0.0,0.0,1.0));
#367=DIRECTION('',(2.16506812478201E-010,-1.0,0.0));
#368=SURFACE_STYLE_FILL_AREA(#463);
#369=ORIENTED_EDGE('',*,*,#99,.T.);
#370=ORIENTED_EDGE('',*,*,#79,.F.);
#371=ORIENTED_EDGE('',*,*,#103,.F.);
#372=ORIENTED_EDGE('',*,*,#69,.T.);
#373=CARTESIAN_POINT('',(9.35307436087194,14.5999999998,0.0));
#374=DIRECTION('',(-0.0,-0.0,1.0));
#375=DIRECTION('',(0.866025403676183,0.500000000187505,0.0));
#376=DIRECTION('',(0.0,0.0,-1.0));
#377=SURFACE_STYLE_FILL_AREA(#464);
#378=ORIENTED_EDGE('',*,*,#77,.T.);
#379=ORIENTED_EDGE('',*,*,#117,.F.);
#380=ORIENTED_EDGE('',*,*,#91,.F.);
#381=ORIENTED_EDGE('',*,*,#139,.T.);
#382=CARTESIAN_POINT('',(1.3856406460551,0.0,0.0));
#383=DIRECTION('',(0.0,-1.0,-0.0));
#384=DIRECTION('',(-1.0,0.0,-0.0));
#385=DIRECTION('',(-0.5,-0.866025403784439,0.0));
#386=DIRECTION('',(1.0,0.0,0.0));
#387=DIRECTION('',(0.0,0.0,-1.0));
#388=SURFACE_STYLE_FILL_AREA(#465);
#389=ORIENTED_EDGE('',*,*,#133,.T.);
#390=ORIENTED_EDGE('',*,*,#139,.F.);
#391=ORIENTED_EDGE('',*,*,#95,.F.);
#392=ORIENTED_EDGE('',*,*,#129,.T.);
#393=CARTESIAN_POINT('',(1.38564064622831,0.8000000001,0.0));
#394=DIRECTION('',(-0.0,-0.0,1.0));
#395=DIRECTION('',(-0.866025403892692,0.499999999812499,0.0));
#396=SURFACE_STYLE_FILL_AREA(#466);
#397=ORIENTED_EDGE('',*,*,#91,.T.);
#398=ORIENTED_EDGE('',*,*,#65,.T.);
#399=ORIENTED_EDGE('',*,*,#97,.T.);
#400=ORIENTED_EDGE('',*,*,#103,.T.);
#401=ORIENTED_EDGE('',*,*,#75,.T.);
#402=ORIENTED_EDGE('',*,*,#95,.T.);
#403=CARTESIAN_POINT('',(9.35307436087194,5.4,0.0));
#404=DIRECTION('',(0.0,0.0,1.0));
#405=DIRECTION('',(1.0,0.0,0.0));
#406=DIRECTION('',(1.0,0.0,0.0));
#407=CARTESIAN_POINT('',(1.38564064622831,0.8000000001,0.0));
#408=DIRECTION('',(0.0,0.0,1.0));
#409=DIRECTION('',(-0.866025403892692,0.499999999812499,0.0));
#410=DIRECTION('',(-0.5,0.866025403784439,0.0));
#411=CARTESIAN_POINT('',(9.35307436087194,14.5999999998,-6.55));
#412=DIRECTION('',(0.0,-0.0,1.0));
#413=DIRECTION('',(0.866025403676183,0.500000000187505,0.0));
#414=SURFACE_STYLE_FILL_AREA(#467);
#415=ORIENTED_EDGE('',*,*,#115,.T.);
#416=ORIENTED_EDGE('',*,*,#63,.F.);
#417=ORIENTED_EDGE('',*,*,#65,.F.);
#418=ORIENTED_EDGE('',*,*,#117,.T.);
#419=CARTESIAN_POINT('',(17.3205080755156,0.800000000100001,0.0));
#420=DIRECTION('',(-0.0,-0.0,1.0));
#421=DIRECTION('',(2.16506812478201E-010,-1.0,0.0));
#422=CARTESIAN_POINT('',(9.35307436087194,14.5999999998,0.0));
#423=DIRECTION('',(0.0,-0.0,1.0));
#424=DIRECTION('',(0.866025403676183,0.500000000187505,0.0));
#425=SURFACE_STYLE_FILL_AREA(#468);
#426=ORIENTED_EDGE('',*,*,#127,.T.);
#427=ORIENTED_EDGE('',*,*,#129,.F.);
#428=ORIENTED_EDGE('',*,*,#75,.F.);
#429=ORIENTED_EDGE('',*,*,#79,.T.);
#430=CARTESIAN_POINT('',(8.66025403793099,14.99999999995,0.0));
#431=DIRECTION('',(-0.866025403784439,0.5,0.0));
#432=DIRECTION('',(0.5,0.866025403784439,-0.0));
#433=SURFACE_STYLE_FILL_AREA(#469);
#434=ORIENTED_EDGE('',*,*,#121,.T.);
#435=ORIENTED_EDGE('',*,*,#69,.F.);
#436=ORIENTED_EDGE('',*,*,#97,.F.);
#437=ORIENTED_EDGE('',*,*,#63,.T.);
#438=CARTESIAN_POINT('',(18.0133283986297,1.19999999995,0.0));
#439=DIRECTION('',(0.866025403784439,0.5,0.0));
#440=DIRECTION('',(0.5,-0.866025403784439,-0.0));
#441=CARTESIAN_POINT('',(17.3205080755156,0.800000000100001,-6.55));
#442=DIRECTION('',(0.0,0.0,1.0));
#443=DIRECTION('',(2.16506812478201E-010,-1.0,0.0));
#444=DIRECTION('',(0.0,0.0,-1.0));
#445=DIRECTION('',(-0.5,0.866025403784439,0.0));
#446=SURFACE_STYLE_FILL_AREA(#470);
#447=ORIENTED_EDGE('',*,*,#115,.F.);
#448=ORIENTED_EDGE('',*,*,#77,.F.);
#449=ORIENTED_EDGE('',*,*,#133,.F.);
#450=ORIENTED_EDGE('',*,*,#127,.F.);
#451=ORIENTED_EDGE('',*,*,#99,.F.);
#452=ORIENTED_EDGE('',*,*,#121,.F.);
#453=CARTESIAN_POINT('',(9.35307436087194,5.4,-6.55));
#454=DIRECTION('',(0.0,0.0,1.0));
#455=DIRECTION('',(1.0,0.0,0.0));
#456=DIRECTION('',(-0.5,-0.866025403784439,0.0));
#457=DIRECTION('',(0.0,0.0,-1.0));
#458=CARTESIAN_POINT('',(1.38564064622831,0.8000000001,-6.55));
#459=DIRECTION('',(0.0,0.0,1.0));
#460=DIRECTION('',(-0.866025403892692,0.499999999812499,0.0));
#461=SURFACE_STYLE_FILL_AREA(#471);
#462=DIRECTION('',(0.0,0.0,-1.0));
#463=FILL_AREA_STYLE('',(#472));
#464=FILL_AREA_STYLE('',(#473));
#465=FILL_AREA_STYLE('',(#474));
#466=FILL_AREA_STYLE('',(#475));
#467=FILL_AREA_STYLE('',(#476));
#468=FILL_AREA_STYLE('',(#477));
#469=FILL_AREA_STYLE('',(#478));
#470=FILL_AREA_STYLE('',(#479));
#471=FILL_AREA_STYLE('',(#480));
#472=FILL_AREA_STYLE_COLOUR('',#481);
#473=FILL_AREA_STYLE_COLOUR('',#482);
#474=FILL_AREA_STYLE_COLOUR('',#483);
#475=FILL_AREA_STYLE_COLOUR('',#484);
#476=FILL_AREA_STYLE_COLOUR('',#485);
#477=FILL_AREA_STYLE_COLOUR('',#486);
#478=FILL_AREA_STYLE_COLOUR('',#487);
#479=FILL_AREA_STYLE_COLOUR('',#488);
#480=FILL_AREA_STYLE_COLOUR('',#489);
#481=COLOUR_RGB('',0.800000011920929,0.800000011920929,0.800000011920929);
#482=COLOUR_RGB('',0.800000011920929,0.800000011920929,0.800000011920929);
#483=COLOUR_RGB('',0.800000011920929,0.800000011920929,0.800000011920929);
#484=COLOUR_RGB('',0.800000011920929,0.800000011920929,0.800000011920929);
#485=COLOUR_RGB('',0.800000011920929,0.800000011920929,0.800000011920929);
#486=COLOUR_RGB('',0.800000011920929,0.800000011920929,0.800000011920929);
#487=COLOUR_RGB('',0.800000011920929,0.800000011920929,0.800000011920929);
#488=COLOUR_RGB('',0.800000011920929,0.800000011920929,0.800000011920929);
#489=COLOUR_RGB('',0.800000011920929,0.800000011920929,0.800000011920929);
#490=AXIS2_PLACEMENT_3D('PCS',#491,#492,#493);
#491=CARTESIAN_POINT('',(0.0,0.0,0.0));
#492=DIRECTION('',(0.0,0.0,1.0));
#493=DIRECTION('',(1.0,0.0,0.0));
#494=AXIS2_PLACEMENT_3D('MCS',#495,#496,#497);
#495=CARTESIAN_POINT('',(9.35307436,5.4,0.0));
#496=DIRECTION('',(0.0,0.0,1.0));
#497=DIRECTION('',(1.0,0.0,0.0));
#498=CONSTRUCTIVE_GEOMETRY_REPRESENTATION_RELATIONSHIP('coordinate systems',$,#53,#499);
#499=CONSTRUCTIVE_GEOMETRY_REPRESENTATION('coordinate systems',(#490,#494),#6);
ENDSEC;
END-ISO-10303-21;
