ISO-10303-21;
HEADER;
FILE_DESCRIPTION(('no description'),'unknown implementation level');
FILE_NAME('solidmQIOPftHNJA2XFY0WmB_1a_iYRM_1.STP','  ',('CIMSOURCE GmbH'),('CADClick - KiM GmbH - www.kimweb.de'),'unknown preprocess','ACIS','unknown authorization');
FILE_SCHEMA(('automotive_design'));
ENDSEC;
DATA;
#1=MECHANICAL_DESIGN_GEOMETRIC_PRESENTATION_REPRESENTATION(' ',(#10,#11,#12,#13,#14,#15,#16,#17,#18,#19,#20,#21,#22,#23,#24,#25,#26,#27,#28,#29,#30,#31,#32,#33,#34,#35,#36,#37,#38,#39,#40,#41,#42,#43,#44,#45,#46,#47,#48),#6);
#2=PRODUCT_DEFINITION_CONTEXT('',#49,'design');
#3=APPLICATION_PROTOCOL_DEFINITION('INTERNATIONAL STANDARD','automotive_design',1994,#49);
#4=PRODUCT_CATEGORY_RELATIONSHIP('NONE','NONE',#50,#51);
#5=SHAPE_DEFINITION_REPRESENTATION(#52,#53);
#6= (GEOMETRIC_REPRESENTATION_CONTEXT(3)GLOBAL_UNCERTAINTY_ASSIGNED_CONTEXT((#56))GLOBAL_UNIT_ASSIGNED_CONTEXT((#58,#59,#60))REPRESENTATION_CONTEXT('NONE','WORKSPACE'));
#10=STYLED_ITEM('',(#62),#63);
#11=STYLED_ITEM('',(#64),#65);
#12=STYLED_ITEM('',(#66),#67);
#13=STYLED_ITEM('',(#68),#69);
#14=STYLED_ITEM('',(#70),#71);
#15=STYLED_ITEM('',(#72),#73);
#16=STYLED_ITEM('',(#74),#75);
#17=STYLED_ITEM('',(#76),#77);
#18=STYLED_ITEM('',(#78),#79);
#19=STYLED_ITEM('',(#80),#81);
#20=STYLED_ITEM('',(#82),#83);
#21=STYLED_ITEM('',(#84),#85);
#22=STYLED_ITEM('',(#86),#87);
#23=STYLED_ITEM('',(#88),#89);
#24=STYLED_ITEM('',(#90),#91);
#25=STYLED_ITEM('',(#92),#93);
#26=STYLED_ITEM('',(#94),#95);
#27=STYLED_ITEM('',(#96),#97);
#28=STYLED_ITEM('',(#98),#99);
#29=STYLED_ITEM('',(#100),#101);
#30=STYLED_ITEM('',(#102),#103);
#31=STYLED_ITEM('',(#104),#105);
#32=STYLED_ITEM('',(#106),#107);
#33=STYLED_ITEM('',(#108),#109);
#34=STYLED_ITEM('',(#110),#111);
#35=STYLED_ITEM('',(#112),#113);
#36=STYLED_ITEM('',(#114),#115);
#37=STYLED_ITEM('',(#116),#117);
#38=STYLED_ITEM('',(#118),#119);
#39=STYLED_ITEM('',(#120),#121);
#40=STYLED_ITEM('',(#122),#123);
#41=STYLED_ITEM('',(#124),#125);
#42=STYLED_ITEM('',(#126),#127);
#43=STYLED_ITEM('',(#128),#129);
#44=STYLED_ITEM('',(#130),#131);
#45=STYLED_ITEM('',(#132),#133);
#46=STYLED_ITEM('',(#134),#135);
#47=STYLED_ITEM('',(#136),#137);
#48=STYLED_ITEM('',(#138),#139);
#49=APPLICATION_CONTEXT(' ');
#50=PRODUCT_CATEGORY('part','NONE');
#51=PRODUCT_RELATED_PRODUCT_CATEGORY('detail',' ',(#140));
#52=PRODUCT_DEFINITION_SHAPE('NONE','NONE',#141);
#53=ADVANCED_BREP_SHAPE_REPRESENTATION('1',(#97,#142),#6);
#56=UNCERTAINTY_MEASURE_WITH_UNIT(LENGTH_MEASURE(1.0E-006),#58,'','');
#58= (CONVERSION_BASED_UNIT('MILLIMETRE',#145)LENGTH_UNIT()NAMED_UNIT(#148));
#59= (NAMED_UNIT(#150)PLANE_ANGLE_UNIT()SI_UNIT($,.RADIAN.));
#60= (NAMED_UNIT(#150)SOLID_ANGLE_UNIT()SI_UNIT($,.STERADIAN.));
#62=PRESENTATION_STYLE_ASSIGNMENT((#156));
#63=VERTEX_POINT('',#157);
#64=PRESENTATION_STYLE_ASSIGNMENT((#158));
#65=EDGE_CURVE('',#63,#99,#159,.T.);
#66=PRESENTATION_STYLE_ASSIGNMENT((#160));
#67=EDGE_CURVE('',#103,#131,#161,.T.);
#68=PRESENTATION_STYLE_ASSIGNMENT((#162));
#69=VERTEX_POINT('',#163);
#70=PRESENTATION_STYLE_ASSIGNMENT((#164));
#71=EDGE_CURVE('',#99,#139,#165,.T.);
#72=PRESENTATION_STYLE_ASSIGNMENT((#166));
#73=ADVANCED_FACE('',(#167),#168,.T.);
#74=PRESENTATION_STYLE_ASSIGNMENT((#169));
#75=ADVANCED_FACE('',(#170),#171,.F.);
#76=PRESENTATION_STYLE_ASSIGNMENT((#172));
#77=VERTEX_POINT('',#173);
#78=PRESENTATION_STYLE_ASSIGNMENT((#174));
#79=EDGE_CURVE('',#77,#63,#175,.T.);
#80=PRESENTATION_STYLE_ASSIGNMENT((#176));
#81=EDGE_CURVE('',#99,#105,#177,.T.);
#82=PRESENTATION_STYLE_ASSIGNMENT((#178));
#83=VERTEX_POINT('',#179);
#84=PRESENTATION_STYLE_ASSIGNMENT((#180));
#85=EDGE_CURVE('',#63,#83,#181,.T.);
#86=PRESENTATION_STYLE_ASSIGNMENT((#182));
#87=VERTEX_POINT('',#183);
#88=PRESENTATION_STYLE_ASSIGNMENT((#184));
#89=EDGE_CURVE('',#129,#103,#185,.T.);
#90=PRESENTATION_STYLE_ASSIGNMENT((#186));
#91=EDGE_CURVE('',#131,#87,#187,.T.);
#92=PRESENTATION_STYLE_ASSIGNMENT((#188));
#93=EDGE_CURVE('',#77,#87,#189,.T.);
#94=PRESENTATION_STYLE_ASSIGNMENT((#190));
#95=EDGE_CURVE('',#129,#127,#191,.T.);
#96=PRESENTATION_STYLE_ASSIGNMENT((#192));
#97=MANIFOLD_SOLID_BREP('1',#193);
#98=PRESENTATION_STYLE_ASSIGNMENT((#194));
#99=VERTEX_POINT('',#195);
#100=PRESENTATION_STYLE_ASSIGNMENT((#196));
#101=ADVANCED_FACE('',(#197),#198,.T.);
#102=PRESENTATION_STYLE_ASSIGNMENT((#199));
#103=VERTEX_POINT('',#200);
#104=PRESENTATION_STYLE_ASSIGNMENT((#201));
#105=VERTEX_POINT('',#202);
#106=PRESENTATION_STYLE_ASSIGNMENT((#203));
#107=ADVANCED_FACE('',(#204),#205,.T.);
#108=PRESENTATION_STYLE_ASSIGNMENT((#206));
#109=EDGE_CURVE('',#105,#129,#207,.T.);
#110=PRESENTATION_STYLE_ASSIGNMENT((#208));
#111=ADVANCED_FACE('',(#209),#210,.T.);
#112=PRESENTATION_STYLE_ASSIGNMENT((#211));
#113=ADVANCED_FACE('',(#212),#213,.T.);
#114=PRESENTATION_STYLE_ASSIGNMENT((#214));
#115=ADVANCED_FACE('',(#215),#216,.T.);
#116=PRESENTATION_STYLE_ASSIGNMENT((#217));
#117=EDGE_CURVE('',#87,#83,#218,.T.);
#118=PRESENTATION_STYLE_ASSIGNMENT((#219));
#119=EDGE_CURVE('',#83,#139,#220,.T.);
#120=PRESENTATION_STYLE_ASSIGNMENT((#221));
#121=EDGE_CURVE('',#139,#69,#222,.T.);
#122=PRESENTATION_STYLE_ASSIGNMENT((#223));
#123=EDGE_CURVE('',#105,#69,#224,.T.);
#124=PRESENTATION_STYLE_ASSIGNMENT((#225));
#125=EDGE_CURVE('',#69,#127,#226,.T.);
#126=PRESENTATION_STYLE_ASSIGNMENT((#227));
#127=VERTEX_POINT('',#228);
#128=PRESENTATION_STYLE_ASSIGNMENT((#229));
#129=VERTEX_POINT('',#230);
#130=PRESENTATION_STYLE_ASSIGNMENT((#231));
#131=VERTEX_POINT('',#232);
#132=PRESENTATION_STYLE_ASSIGNMENT((#233));
#133=EDGE_CURVE('',#103,#77,#234,.T.);
#134=PRESENTATION_STYLE_ASSIGNMENT((#235));
#135=EDGE_CURVE('',#127,#131,#236,.T.);
#136=PRESENTATION_STYLE_ASSIGNMENT((#237));
#137=ADVANCED_FACE('',(#238),#239,.T.);
#138=PRESENTATION_STYLE_ASSIGNMENT((#240));
#139=VERTEX_POINT('',#241);
#140=PRODUCT('1','1','PART-1-DESC',(#242));
#141=PRODUCT_DEFINITION('NONE','NONE',#243,#2);
#142=AXIS2_PLACEMENT_3D('',#244,#245,#246);
#145=LENGTH_MEASURE_WITH_UNIT(LENGTH_MEASURE(1.0),#247);
#148=DIMENSIONAL_EXPONENTS(1.0,0.0,0.0,0.0,0.0,0.0,0.0);
#150=DIMENSIONAL_EXPONENTS(0.0,0.0,0.0,0.0,0.0,0.0,0.0);
#156=POINT_STYLE(' ',#248,POSITIVE_LENGTH_MEASURE(1.0E-006),#249);
#157=CARTESIAN_POINT('',(15.9348674296337,0.0,0.0));
#158=CURVE_STYLE('',#250,POSITIVE_LENGTH_MEASURE(1.0E-006),#251);
#159=CIRCLE('',#252,1.6);
#160=CURVE_STYLE('',#253,POSITIVE_LENGTH_MEASURE(1.0E-006),#254);
#161=LINE('',#255,#256);
#162=POINT_STYLE(' ',#257,POSITIVE_LENGTH_MEASURE(1.0E-006),#258);
#163=CARTESIAN_POINT('',(10.738715006927,13.8,-6.55));
#164=CURVE_STYLE('',#259,POSITIVE_LENGTH_MEASURE(1.0E-006),#260);
#165=LINE('',#261,#262);
#166=SURFACE_STYLE_USAGE(.BOTH.,#263);
#167=FACE_OUTER_BOUND('',#264,.T.);
#168=PLANE('',#265);
#169=SURFACE_STYLE_USAGE(.BOTH.,#266);
#170=FACE_OUTER_BOUND('',#267,.T.);
#171=PLANE('',#268);
#172=POINT_STYLE(' ',#269,POSITIVE_LENGTH_MEASURE(1.0E-006),#270);
#173=CARTESIAN_POINT('',(2.7712812921102,0.0,0.0));
#174=CURVE_STYLE('',#271,POSITIVE_LENGTH_MEASURE(1.0E-006),#272);
#175=LINE('',#273,#274);
#176=CURVE_STYLE('',#275,POSITIVE_LENGTH_MEASURE(1.0E-006),#276);
#177=LINE('',#277,#278);
#178=POINT_STYLE(' ',#279,POSITIVE_LENGTH_MEASURE(1.0E-006),#280);
#179=CARTESIAN_POINT('',(15.9348674296337,0.0,-6.55));
#180=CURVE_STYLE('',#281,POSITIVE_LENGTH_MEASURE(1.0E-006),#282);
#181=LINE('',#283,#284);
#182=POINT_STYLE(' ',#285,POSITIVE_LENGTH_MEASURE(1.0E-006),#286);
#183=CARTESIAN_POINT('',(2.7712812921102,0.0,-6.55));
#184=CURVE_STYLE('',#287,POSITIVE_LENGTH_MEASURE(1.0E-006),#288);
#185=LINE('',#289,#290);
#186=CURVE_STYLE('',#291,POSITIVE_LENGTH_MEASURE(1.0E-006),#292);
#187=CIRCLE('',#293,1.6);
#188=CURVE_STYLE('',#294,POSITIVE_LENGTH_MEASURE(1.0E-006),#295);
#189=LINE('',#296,#297);
#190=CURVE_STYLE('',#298,POSITIVE_LENGTH_MEASURE(1.0E-006),#299);
#191=LINE('',#300,#301);
#192=SURFACE_STYLE_USAGE(.BOTH.,#302);
#193=CLOSED_SHELL('',(#137,#115,#101,#107,#113,#111,#75,#73));
#194=POINT_STYLE(' ',#303,POSITIVE_LENGTH_MEASURE(1.0E-006),#304);
#195=CARTESIAN_POINT('',(17.3205080756022,2.39999999995,0.0));
#196=SURFACE_STYLE_USAGE(.BOTH.,#305);
#197=FACE_OUTER_BOUND('',#306,.T.);
#198=CYLINDRICAL_SURFACE('',#307,1.6);
#199=POINT_STYLE(' ',#308,POSITIVE_LENGTH_MEASURE(1.0E-006),#309);
#200=CARTESIAN_POINT('',(1.3856406460551,2.4,0.0));
#201=POINT_STYLE(' ',#310,POSITIVE_LENGTH_MEASURE(1.0E-006),#311);
#202=CARTESIAN_POINT('',(10.738715006927,13.8,0.0));
#203=SURFACE_STYLE_USAGE(.BOTH.,#312);
#204=FACE_OUTER_BOUND('',#313,.T.);
#205=PLANE('',#314);
#206=CURVE_STYLE('',#315,POSITIVE_LENGTH_MEASURE(1.0E-006),#316);
#207=CIRCLE('',#317,1.6);
#208=SURFACE_STYLE_USAGE(.BOTH.,#318);
#209=FACE_OUTER_BOUND('',#319,.T.);
#210=PLANE('',#320);
#211=SURFACE_STYLE_USAGE(.BOTH.,#321);
#212=FACE_OUTER_BOUND('',#322,.T.);
#213=CYLINDRICAL_SURFACE('',#323,1.6);
#214=SURFACE_STYLE_USAGE(.BOTH.,#324);
#215=FACE_OUTER_BOUND('',#325,.T.);
#216=PLANE('',#326);
#217=CURVE_STYLE('',#327,POSITIVE_LENGTH_MEASURE(1.0E-006),#328);
#218=LINE('',#329,#330);
#219=CURVE_STYLE('',#331,POSITIVE_LENGTH_MEASURE(1.0E-006),#332);
#220=CIRCLE('',#333,1.6);
#221=CURVE_STYLE('',#334,POSITIVE_LENGTH_MEASURE(1.0E-006),#335);
#222=LINE('',#336,#337);
#223=CURVE_STYLE('',#338,POSITIVE_LENGTH_MEASURE(1.0E-006),#339);
#224=LINE('',#340,#341);
#225=CURVE_STYLE('',#342,POSITIVE_LENGTH_MEASURE(1.0E-006),#343);
#226=CIRCLE('',#344,1.6);
#227=POINT_STYLE(' ',#345,POSITIVE_LENGTH_MEASURE(1.0E-006),#346);
#228=CARTESIAN_POINT('',(7.96743371490344,13.79999999995,-6.55));
#229=POINT_STYLE(' ',#347,POSITIVE_LENGTH_MEASURE(1.0E-006),#348);
#230=CARTESIAN_POINT('',(7.96743371490344,13.79999999995,0.0));
#231=POINT_STYLE(' ',#349,POSITIVE_LENGTH_MEASURE(1.0E-006),#350);
#232=CARTESIAN_POINT('',(1.3856406460551,2.4,-6.55));
#233=CURVE_STYLE('',#351,POSITIVE_LENGTH_MEASURE(1.0E-006),#352);
#234=CIRCLE('',#353,1.6);
#235=CURVE_STYLE('',#354,POSITIVE_LENGTH_MEASURE(1.0E-006),#355);
#236=LINE('',#356,#357);
#237=SURFACE_STYLE_USAGE(.BOTH.,#358);
#238=FACE_OUTER_BOUND('',#359,.T.);
#239=CYLINDRICAL_SURFACE('',#360,1.6);
#240=POINT_STYLE(' ',#361,POSITIVE_LENGTH_MEASURE(1.0E-006),#362);
#241=CARTESIAN_POINT('',(17.3205080756022,2.39999999995,-6.55));
#242=PRODUCT_CONTEXT('',#49,'mechanical');
#243=PRODUCT_DEFINITION_FORMATION_WITH_SPECIFIED_SOURCE(' ','NONE',#140,.NOT_KNOWN.);
#244=CARTESIAN_POINT('',(0.0,0.0,0.0));
#245=DIRECTION('',(0.0,0.0,1.0));
#246=DIRECTION('',(1.0,0.0,0.0));
#247= (NAMED_UNIT(#148)LENGTH_UNIT()SI_UNIT(.MILLI.,.METRE.));
#248=PRE_DEFINED_MARKER('');
#249=COLOUR_RGB('',0.800000011920929,0.800000011920929,0.800000011920929);
#250=DRAUGHTING_PRE_DEFINED_CURVE_FONT('continuous');
#251=COLOUR_RGB('',0.800000011920929,0.800000011920929,0.800000011920929);
#252=AXIS2_PLACEMENT_3D('',#364,#365,#366);
#253=DRAUGHTING_PRE_DEFINED_CURVE_FONT('continuous');
#254=COLOUR_RGB('',0.800000011920929,0.800000011920929,0.800000011920929);
#255=CARTESIAN_POINT('',(1.3856406460551,2.4,0.0));
#256=VECTOR('',#367,1.0);
#257=PRE_DEFINED_MARKER('');
#258=COLOUR_RGB('',0.800000011920929,0.800000011920929,0.800000011920929);
#259=DRAUGHTING_PRE_DEFINED_CURVE_FONT('continuous');
#260=COLOUR_RGB('',0.800000011920929,0.800000011920929,0.800000011920929);
#261=CARTESIAN_POINT('',(17.3205080756022,2.39999999995,0.0));
#262=VECTOR('',#368,1.0);
#263=SURFACE_SIDE_STYLE('',(#369));
#264=EDGE_LOOP('',(#370,#371,#372,#373,#374,#375));
#265=AXIS2_PLACEMENT_3D('',#376,#377,#378);
#266=SURFACE_SIDE_STYLE('',(#379));
#267=EDGE_LOOP('',(#380,#381,#382,#383,#384,#385));
#268=AXIS2_PLACEMENT_3D('',#386,#387,#388);
#269=PRE_DEFINED_MARKER('');
#270=COLOUR_RGB('',0.800000011920929,0.800000011920929,0.800000011920929);
#271=DRAUGHTING_PRE_DEFINED_CURVE_FONT('continuous');
#272=COLOUR_RGB('',0.800000011920929,0.800000011920929,0.800000011920929);
#273=CARTESIAN_POINT('',(2.7712812921102,0.0,0.0));
#274=VECTOR('',#389,1.0);
#275=DRAUGHTING_PRE_DEFINED_CURVE_FONT('continuous');
#276=COLOUR_RGB('',0.800000011920929,0.800000011920929,0.800000011920929);
#277=CARTESIAN_POINT('',(17.3205080756888,2.4,0.0));
#278=VECTOR('',#390,1.0);
#279=PRE_DEFINED_MARKER('');
#280=COLOUR_RGB('',0.800000011920929,0.800000011920929,0.800000011920929);
#281=DRAUGHTING_PRE_DEFINED_CURVE_FONT('continuous');
#282=COLOUR_RGB('',0.800000011920929,0.800000011920929,0.800000011920929);
#283=CARTESIAN_POINT('',(15.9348674296337,0.0,0.0));
#284=VECTOR('',#391,1.0);
#285=PRE_DEFINED_MARKER('');
#286=COLOUR_RGB('',0.800000011920929,0.800000011920929,0.800000011920929);
#287=DRAUGHTING_PRE_DEFINED_CURVE_FONT('continuous');
#288=COLOUR_RGB('',0.800000011920929,0.800000011920929,0.800000011920929);
#289=CARTESIAN_POINT('',(7.96743371481684,13.8,0.0));
#290=VECTOR('',#392,1.0);
#291=DRAUGHTING_PRE_DEFINED_CURVE_FONT('continuous');
#292=COLOUR_RGB('',0.800000011920929,0.800000011920929,0.800000011920929);
#293=AXIS2_PLACEMENT_3D('',#393,#394,#395);
#294=DRAUGHTING_PRE_DEFINED_CURVE_FONT('continuous');
#295=COLOUR_RGB('',0.800000011920929,0.800000011920929,0.800000011920929);
#296=CARTESIAN_POINT('',(2.7712812921102,0.0,0.0));
#297=VECTOR('',#396,1.0);
#298=DRAUGHTING_PRE_DEFINED_CURVE_FONT('continuous');
#299=COLOUR_RGB('',0.800000011920929,0.800000011920929,0.800000011920929);
#300=CARTESIAN_POINT('',(7.96743371490344,13.79999999995,0.0));
#301=VECTOR('',#397,1.0);
#302=SURFACE_SIDE_STYLE('',(#398));
#303=PRE_DEFINED_MARKER('');
#304=COLOUR_RGB('',0.800000011920929,0.800000011920929,0.800000011920929);
#305=SURFACE_SIDE_STYLE('',(#399));
#306=EDGE_LOOP('',(#400,#401,#402,#403));
#307=AXIS2_PLACEMENT_3D('',#404,#405,#406);
#308=PRE_DEFINED_MARKER('');
#309=COLOUR_RGB('',0.800000011920929,0.800000011920929,0.800000011920929);
#310=PRE_DEFINED_MARKER('');
#311=COLOUR_RGB('',0.800000011920929,0.800000011920929,0.800000011920929);
#312=SURFACE_SIDE_STYLE('',(#407));
#313=EDGE_LOOP('',(#408,#409,#410,#411));
#314=AXIS2_PLACEMENT_3D('',#412,#413,#414);
#315=DRAUGHTING_PRE_DEFINED_CURVE_FONT('continuous');
#316=COLOUR_RGB('',0.800000011920929,0.800000011920929,0.800000011920929);
#317=AXIS2_PLACEMENT_3D('',#415,#416,#417);
#318=SURFACE_SIDE_STYLE('',(#418));
#319=EDGE_LOOP('',(#419,#420,#421,#422));
#320=AXIS2_PLACEMENT_3D('',#423,#424,#425);
#321=SURFACE_SIDE_STYLE('',(#426));
#322=EDGE_LOOP('',(#427,#428,#429,#430));
#323=AXIS2_PLACEMENT_3D('',#431,#432,#433);
#324=SURFACE_SIDE_STYLE('',(#434));
#325=EDGE_LOOP('',(#435,#436,#437,#438));
#326=AXIS2_PLACEMENT_3D('',#439,#440,#441);
#327=DRAUGHTING_PRE_DEFINED_CURVE_FONT('continuous');
#328=COLOUR_RGB('',0.800000011920929,0.800000011920929,0.800000011920929);
#329=CARTESIAN_POINT('',(2.7712812921102,0.0,-6.55));
#330=VECTOR('',#442,1.0);
#331=DRAUGHTING_PRE_DEFINED_CURVE_FONT('continuous');
#332=COLOUR_RGB('',0.800000011920929,0.800000011920929,0.800000011920929);
#333=AXIS2_PLACEMENT_3D('',#443,#444,#445);
#334=DRAUGHTING_PRE_DEFINED_CURVE_FONT('continuous');
#335=COLOUR_RGB('',0.800000011920929,0.800000011920929,0.800000011920929);
#336=CARTESIAN_POINT('',(17.3205080756888,2.4,-6.55));
#337=VECTOR('',#446,1.0);
#338=DRAUGHTING_PRE_DEFINED_CURVE_FONT('continuous');
#339=COLOUR_RGB('',0.800000011920929,0.800000011920929,0.800000011920929);
#340=CARTESIAN_POINT('',(10.738715006927,13.8,0.0));
#341=VECTOR('',#447,1.0);
#342=DRAUGHTING_PRE_DEFINED_CURVE_FONT('continuous');
#343=COLOUR_RGB('',0.800000011920929,0.800000011920929,0.800000011920929);
#344=AXIS2_PLACEMENT_3D('',#448,#449,#450);
#345=PRE_DEFINED_MARKER('');
#346=COLOUR_RGB('',0.800000011920929,0.800000011920929,0.800000011920929);
#347=PRE_DEFINED_MARKER('');
#348=COLOUR_RGB('',0.800000011920929,0.800000011920929,0.800000011920929);
#349=PRE_DEFINED_MARKER('');
#350=COLOUR_RGB('',0.800000011920929,0.800000011920929,0.800000011920929);
#351=DRAUGHTING_PRE_DEFINED_CURVE_FONT('continuous');
#352=COLOUR_RGB('',0.800000011920929,0.800000011920929,0.800000011920929);
#353=AXIS2_PLACEMENT_3D('',#451,#452,#453);
#354=DRAUGHTING_PRE_DEFINED_CURVE_FONT('continuous');
#355=COLOUR_RGB('',0.800000011920929,0.800000011920929,0.800000011920929);
#356=CARTESIAN_POINT('',(7.96743371481684,13.8,-6.55));
#357=VECTOR('',#454,1.0);
#358=SURFACE_SIDE_STYLE('',(#455));
#359=EDGE_LOOP('',(#456,#457,#458,#459));
#360=AXIS2_PLACEMENT_3D('',#460,#461,#462);
#361=PRE_DEFINED_MARKER('');
#362=COLOUR_RGB('',0.800000011920929,0.800000011920929,0.800000011920929);
#364=CARTESIAN_POINT('',(15.9348674294605,1.6000000001,0.0));
#365=DIRECTION('',(0.0,0.0,1.0));
#366=DIRECTION('',(1.082534062391E-010,-1.0,0.0));
#367=DIRECTION('',(0.0,0.0,-1.0));
#368=DIRECTION('',(0.0,0.0,-1.0));
#369=SURFACE_STYLE_FILL_AREA(#463);
#370=ORIENTED_EDGE('',*,*,#79,.T.);
#371=ORIENTED_EDGE('',*,*,#65,.T.);
#372=ORIENTED_EDGE('',*,*,#81,.T.);
#373=ORIENTED_EDGE('',*,*,#109,.T.);
#374=ORIENTED_EDGE('',*,*,#89,.T.);
#375=ORIENTED_EDGE('',*,*,#133,.T.);
#376=CARTESIAN_POINT('',(9.35307436087194,5.4,0.0));
#377=DIRECTION('',(0.0,0.0,1.0));
#378=DIRECTION('',(1.0,0.0,0.0));
#379=SURFACE_STYLE_FILL_AREA(#464);
#380=ORIENTED_EDGE('',*,*,#119,.F.);
#381=ORIENTED_EDGE('',*,*,#117,.F.);
#382=ORIENTED_EDGE('',*,*,#91,.F.);
#383=ORIENTED_EDGE('',*,*,#135,.F.);
#384=ORIENTED_EDGE('',*,*,#125,.F.);
#385=ORIENTED_EDGE('',*,*,#121,.F.);
#386=CARTESIAN_POINT('',(9.35307436087194,5.4,-6.55));
#387=DIRECTION('',(0.0,0.0,1.0));
#388=DIRECTION('',(1.0,0.0,0.0));
#389=DIRECTION('',(1.0,0.0,0.0));
#390=DIRECTION('',(-0.5,0.866025403784439,0.0));
#391=DIRECTION('',(0.0,0.0,-1.0));
#392=DIRECTION('',(-0.5,-0.866025403784439,0.0));
#393=CARTESIAN_POINT('',(2.77128129228341,1.6000000001,-6.55));
#394=DIRECTION('',(0.0,0.0,1.0));
#395=DIRECTION('',(-0.866025403838566,0.499999999906248,0.0));
#396=DIRECTION('',(0.0,0.0,-1.0));
#397=DIRECTION('',(0.0,0.0,-1.0));
#398=SURFACE_STYLE_FILL_AREA(#465);
#399=SURFACE_STYLE_FILL_AREA(#466);
#400=ORIENTED_EDGE('',*,*,#125,.T.);
#401=ORIENTED_EDGE('',*,*,#95,.F.);
#402=ORIENTED_EDGE('',*,*,#109,.F.);
#403=ORIENTED_EDGE('',*,*,#123,.T.);
#404=CARTESIAN_POINT('',(9.35307436087194,12.9999999998,0.0));
#405=DIRECTION('',(-0.0,-0.0,1.0));
#406=DIRECTION('',(0.866025403730311,0.500000000093751,0.0));
#407=SURFACE_STYLE_FILL_AREA(#467);
#408=ORIENTED_EDGE('',*,*,#135,.T.);
#409=ORIENTED_EDGE('',*,*,#67,.F.);
#410=ORIENTED_EDGE('',*,*,#89,.F.);
#411=ORIENTED_EDGE('',*,*,#95,.T.);
#412=CARTESIAN_POINT('',(7.96743371490344,13.79999999995,0.0));
#413=DIRECTION('',(-0.866025403784439,0.5,0.0));
#414=DIRECTION('',(0.5,0.866025403784439,-0.0));
#415=CARTESIAN_POINT('',(9.35307436087194,12.9999999998,0.0));
#416=DIRECTION('',(0.0,-0.0,1.0));
#417=DIRECTION('',(0.866025403730311,0.500000000093751,0.0));
#418=SURFACE_STYLE_FILL_AREA(#468);
#419=ORIENTED_EDGE('',*,*,#117,.T.);
#420=ORIENTED_EDGE('',*,*,#85,.F.);
#421=ORIENTED_EDGE('',*,*,#79,.F.);
#422=ORIENTED_EDGE('',*,*,#93,.T.);
#423=CARTESIAN_POINT('',(2.7712812921102,0.0,0.0));
#424=DIRECTION('',(0.0,-1.0,-0.0));
#425=DIRECTION('',(-1.0,0.0,-0.0));
#426=SURFACE_STYLE_FILL_AREA(#469);
#427=ORIENTED_EDGE('',*,*,#91,.T.);
#428=ORIENTED_EDGE('',*,*,#93,.F.);
#429=ORIENTED_EDGE('',*,*,#133,.F.);
#430=ORIENTED_EDGE('',*,*,#67,.T.);
#431=CARTESIAN_POINT('',(2.77128129228341,1.6000000001,0.0));
#432=DIRECTION('',(-0.0,-0.0,1.0));
#433=DIRECTION('',(-0.866025403838566,0.499999999906248,0.0));
#434=SURFACE_STYLE_FILL_AREA(#470);
#435=ORIENTED_EDGE('',*,*,#121,.T.);
#436=ORIENTED_EDGE('',*,*,#123,.F.);
#437=ORIENTED_EDGE('',*,*,#81,.F.);
#438=ORIENTED_EDGE('',*,*,#71,.T.);
#439=CARTESIAN_POINT('',(17.3205080756022,2.39999999995,0.0));
#440=DIRECTION('',(0.866025403784439,0.5,0.0));
#441=DIRECTION('',(0.5,-0.866025403784439,-0.0));
#442=DIRECTION('',(1.0,0.0,0.0));
#443=CARTESIAN_POINT('',(15.9348674294605,1.6000000001,-6.55));
#444=DIRECTION('',(0.0,0.0,1.0));
#445=DIRECTION('',(1.082534062391E-010,-1.0,0.0));
#446=DIRECTION('',(-0.5,0.866025403784439,0.0));
#447=DIRECTION('',(0.0,0.0,-1.0));
#448=CARTESIAN_POINT('',(9.35307436087194,12.9999999998,-6.55));
#449=DIRECTION('',(0.0,-0.0,1.0));
#450=DIRECTION('',(0.866025403730311,0.500000000093751,0.0));
#451=CARTESIAN_POINT('',(2.77128129228341,1.6000000001,0.0));
#452=DIRECTION('',(0.0,0.0,1.0));
#453=DIRECTION('',(-0.866025403838566,0.499999999906248,0.0));
#454=DIRECTION('',(-0.5,-0.866025403784439,0.0));
#455=SURFACE_STYLE_FILL_AREA(#471);
#456=ORIENTED_EDGE('',*,*,#119,.T.);
#457=ORIENTED_EDGE('',*,*,#71,.F.);
#458=ORIENTED_EDGE('',*,*,#65,.F.);
#459=ORIENTED_EDGE('',*,*,#85,.T.);
#460=CARTESIAN_POINT('',(15.9348674294605,1.6000000001,0.0));
#461=DIRECTION('',(-0.0,-0.0,1.0));
#462=DIRECTION('',(1.082534062391E-010,-1.0,0.0));
#463=FILL_AREA_STYLE('',(#472));
#464=FILL_AREA_STYLE('',(#473));
#465=FILL_AREA_STYLE('',(#474));
#466=FILL_AREA_STYLE('',(#475));
#467=FILL_AREA_STYLE('',(#476));
#468=FILL_AREA_STYLE('',(#477));
#469=FILL_AREA_STYLE('',(#478));
#470=FILL_AREA_STYLE('',(#479));
#471=FILL_AREA_STYLE('',(#480));
#472=FILL_AREA_STYLE_COLOUR('',#481);
#473=FILL_AREA_STYLE_COLOUR('',#482);
#474=FILL_AREA_STYLE_COLOUR('',#483);
#475=FILL_AREA_STYLE_COLOUR('',#484);
#476=FILL_AREA_STYLE_COLOUR('',#485);
#477=FILL_AREA_STYLE_COLOUR('',#486);
#478=FILL_AREA_STYLE_COLOUR('',#487);
#479=FILL_AREA_STYLE_COLOUR('',#488);
#480=FILL_AREA_STYLE_COLOUR('',#489);
#481=COLOUR_RGB('',0.800000011920929,0.800000011920929,0.800000011920929);
#482=COLOUR_RGB('',0.800000011920929,0.800000011920929,0.800000011920929);
#483=COLOUR_RGB('',0.800000011920929,0.800000011920929,0.800000011920929);
#484=COLOUR_RGB('',0.800000011920929,0.800000011920929,0.800000011920929);
#485=COLOUR_RGB('',0.800000011920929,0.800000011920929,0.800000011920929);
#486=COLOUR_RGB('',0.800000011920929,0.800000011920929,0.800000011920929);
#487=COLOUR_RGB('',0.800000011920929,0.800000011920929,0.800000011920929);
#488=COLOUR_RGB('',0.800000011920929,0.800000011920929,0.800000011920929);
#489=COLOUR_RGB('',0.800000011920929,0.800000011920929,0.800000011920929);
#490=AXIS2_PLACEMENT_3D('PCS',#491,#492,#493);
#491=CARTESIAN_POINT('',(0.0,0.0,0.0));
#492=DIRECTION('',(0.0,0.0,1.0));
#493=DIRECTION('',(1.0,0.0,0.0));
#494=AXIS2_PLACEMENT_3D('MCS',#495,#496,#497);
#495=CARTESIAN_POINT('',(9.35307436,5.4,0.0));
#496=DIRECTION('',(0.0,0.0,1.0));
#497=DIRECTION('',(1.0,0.0,0.0));
#498=CONSTRUCTIVE_GEOMETRY_REPRESENTATION_RELATIONSHIP('coordinate systems',$,#53,#499);
#499=CONSTRUCTIVE_GEOMETRY_REPRESENTATION('coordinate systems',(#490,#494),#6);
ENDSEC;
END-ISO-10303-21;
