ISO-10303-21;
HEADER;
FILE_DESCRIPTION(('no description'),'unknown implementation level');
FILE_NAME('solidiWd4W_bmWLhSVkAEi8_NVf9UNtU_1.STP','  ',('CIMSOURCE GmbH'),('CADClick - KiM GmbH - www.kimweb.de'),'unknown preprocess','ACIS','unknown authorization');
FILE_SCHEMA(('automotive_design'));
ENDSEC;
DATA;
#1=MECHANICAL_DESIGN_GEOMETRIC_PRESENTATION_REPRESENTATION(' ',(#10,#11,#12,#13,#14,#15,#16,#17,#18,#19,#20,#21,#22,#23,#24,#25,#26,#27,#28,#29,#30,#31,#32,#33,#34,#35,#36,#37,#38,#39,#40,#41,#42,#43,#44,#45,#46,#47,#48),#6);
#2=PRODUCT_DEFINITION_CONTEXT('',#49,'design');
#3=APPLICATION_PROTOCOL_DEFINITION('INTERNATIONAL STANDARD','automotive_design',1994,#49);
#4=PRODUCT_CATEGORY_RELATIONSHIP('NONE','NONE',#50,#51);
#5=SHAPE_DEFINITION_REPRESENTATION(#52,#53);
#6= (GEOMETRIC_REPRESENTATION_CONTEXT(3)GLOBAL_UNCERTAINTY_ASSIGNED_CONTEXT((#56))GLOBAL_UNIT_ASSIGNED_CONTEXT((#58,#59,#60))REPRESENTATION_CONTEXT('NONE','WORKSPACE'));
#10=STYLED_ITEM('',(#62),#63);
#11=STYLED_ITEM('',(#64),#65);
#12=STYLED_ITEM('',(#66),#67);
#13=STYLED_ITEM('',(#68),#69);
#14=STYLED_ITEM('',(#70),#71);
#15=STYLED_ITEM('',(#72),#73);
#16=STYLED_ITEM('',(#74),#75);
#17=STYLED_ITEM('',(#76),#77);
#18=STYLED_ITEM('',(#78),#79);
#19=STYLED_ITEM('',(#80),#81);
#20=STYLED_ITEM('',(#82),#83);
#21=STYLED_ITEM('',(#84),#85);
#22=STYLED_ITEM('',(#86),#87);
#23=STYLED_ITEM('',(#88),#89);
#24=STYLED_ITEM('',(#90),#91);
#25=STYLED_ITEM('',(#92),#93);
#26=STYLED_ITEM('',(#94),#95);
#27=STYLED_ITEM('',(#96),#97);
#28=STYLED_ITEM('',(#98),#99);
#29=STYLED_ITEM('',(#100),#101);
#30=STYLED_ITEM('',(#102),#103);
#31=STYLED_ITEM('',(#104),#105);
#32=STYLED_ITEM('',(#106),#107);
#33=STYLED_ITEM('',(#108),#109);
#34=STYLED_ITEM('',(#110),#111);
#35=STYLED_ITEM('',(#112),#113);
#36=STYLED_ITEM('',(#114),#115);
#37=STYLED_ITEM('',(#116),#117);
#38=STYLED_ITEM('',(#118),#119);
#39=STYLED_ITEM('',(#120),#121);
#40=STYLED_ITEM('',(#122),#123);
#41=STYLED_ITEM('',(#124),#125);
#42=STYLED_ITEM('',(#126),#127);
#43=STYLED_ITEM('',(#128),#129);
#44=STYLED_ITEM('',(#130),#131);
#45=STYLED_ITEM('',(#132),#133);
#46=STYLED_ITEM('',(#134),#135);
#47=STYLED_ITEM('',(#136),#137);
#48=STYLED_ITEM('',(#138),#139);
#49=APPLICATION_CONTEXT(' ');
#50=PRODUCT_CATEGORY('part','NONE');
#51=PRODUCT_RELATED_PRODUCT_CATEGORY('detail',' ',(#140));
#52=PRODUCT_DEFINITION_SHAPE('NONE','NONE',#141);
#53=ADVANCED_BREP_SHAPE_REPRESENTATION('1',(#101,#142),#6);
#56=UNCERTAINTY_MEASURE_WITH_UNIT(LENGTH_MEASURE(1.0E-006),#58,'','');
#58= (CONVERSION_BASED_UNIT('MILLIMETRE',#145)LENGTH_UNIT()NAMED_UNIT(#148));
#59= (NAMED_UNIT(#150)PLANE_ANGLE_UNIT()SI_UNIT($,.RADIAN.));
#60= (NAMED_UNIT(#150)SOLID_ANGLE_UNIT()SI_UNIT($,.STERADIAN.));
#62=PRESENTATION_STYLE_ASSIGNMENT((#156));
#63=ADVANCED_FACE('',(#157),#158,.T.);
#64=PRESENTATION_STYLE_ASSIGNMENT((#159));
#65=EDGE_CURVE('',#81,#125,#160,.T.);
#66=PRESENTATION_STYLE_ASSIGNMENT((#161));
#67=EDGE_CURVE('',#99,#79,#162,.T.);
#68=PRESENTATION_STYLE_ASSIGNMENT((#163));
#69=VERTEX_POINT('',#164);
#70=PRESENTATION_STYLE_ASSIGNMENT((#165));
#71=EDGE_CURVE('',#105,#121,#166,.T.);
#72=PRESENTATION_STYLE_ASSIGNMENT((#167));
#73=EDGE_CURVE('',#79,#127,#168,.T.);
#74=PRESENTATION_STYLE_ASSIGNMENT((#169));
#75=ADVANCED_FACE('',(#170),#171,.T.);
#76=PRESENTATION_STYLE_ASSIGNMENT((#172));
#77=ADVANCED_FACE('',(#173),#174,.F.);
#78=PRESENTATION_STYLE_ASSIGNMENT((#175));
#79=VERTEX_POINT('',#176);
#80=PRESENTATION_STYLE_ASSIGNMENT((#177));
#81=VERTEX_POINT('',#178);
#82=PRESENTATION_STYLE_ASSIGNMENT((#179));
#83=VERTEX_POINT('',#180);
#84=PRESENTATION_STYLE_ASSIGNMENT((#181));
#85=EDGE_CURVE('',#121,#69,#182,.T.);
#86=PRESENTATION_STYLE_ASSIGNMENT((#183));
#87=EDGE_CURVE('',#83,#93,#184,.T.);
#88=PRESENTATION_STYLE_ASSIGNMENT((#185));
#89=EDGE_CURVE('',#93,#105,#186,.T.);
#90=PRESENTATION_STYLE_ASSIGNMENT((#187));
#91=EDGE_CURVE('',#125,#121,#188,.T.);
#92=PRESENTATION_STYLE_ASSIGNMENT((#189));
#93=VERTEX_POINT('',#190);
#94=PRESENTATION_STYLE_ASSIGNMENT((#191));
#95=ADVANCED_FACE('',(#192),#193,.T.);
#96=PRESENTATION_STYLE_ASSIGNMENT((#194));
#97=EDGE_CURVE('',#105,#131,#195,.T.);
#98=PRESENTATION_STYLE_ASSIGNMENT((#196));
#99=VERTEX_POINT('',#197);
#100=PRESENTATION_STYLE_ASSIGNMENT((#198));
#101=MANIFOLD_SOLID_BREP('1',#199);
#102=PRESENTATION_STYLE_ASSIGNMENT((#200));
#103=EDGE_CURVE('',#83,#81,#201,.T.);
#104=PRESENTATION_STYLE_ASSIGNMENT((#202));
#105=VERTEX_POINT('',#203);
#106=PRESENTATION_STYLE_ASSIGNMENT((#204));
#107=EDGE_CURVE('',#79,#83,#205,.T.);
#108=PRESENTATION_STYLE_ASSIGNMENT((#206));
#109=EDGE_CURVE('',#131,#99,#207,.T.);
#110=PRESENTATION_STYLE_ASSIGNMENT((#208));
#111=ADVANCED_FACE('',(#209),#210,.T.);
#112=PRESENTATION_STYLE_ASSIGNMENT((#211));
#113=EDGE_CURVE('',#117,#127,#212,.T.);
#114=PRESENTATION_STYLE_ASSIGNMENT((#213));
#115=ADVANCED_FACE('',(#214),#215,.T.);
#116=PRESENTATION_STYLE_ASSIGNMENT((#216));
#117=VERTEX_POINT('',#217);
#118=PRESENTATION_STYLE_ASSIGNMENT((#218));
#119=EDGE_CURVE('',#99,#117,#219,.T.);
#120=PRESENTATION_STYLE_ASSIGNMENT((#220));
#121=VERTEX_POINT('',#221);
#122=PRESENTATION_STYLE_ASSIGNMENT((#222));
#123=ADVANCED_FACE('',(#223),#224,.T.);
#124=PRESENTATION_STYLE_ASSIGNMENT((#225));
#125=VERTEX_POINT('',#226);
#126=PRESENTATION_STYLE_ASSIGNMENT((#227));
#127=VERTEX_POINT('',#228);
#128=PRESENTATION_STYLE_ASSIGNMENT((#229));
#129=EDGE_CURVE('',#131,#69,#230,.T.);
#130=PRESENTATION_STYLE_ASSIGNMENT((#231));
#131=VERTEX_POINT('',#232);
#132=PRESENTATION_STYLE_ASSIGNMENT((#233));
#133=ADVANCED_FACE('',(#234),#235,.T.);
#134=PRESENTATION_STYLE_ASSIGNMENT((#236));
#135=EDGE_CURVE('',#69,#117,#237,.T.);
#136=PRESENTATION_STYLE_ASSIGNMENT((#238));
#137=EDGE_CURVE('',#93,#125,#239,.T.);
#138=PRESENTATION_STYLE_ASSIGNMENT((#240));
#139=EDGE_CURVE('',#127,#81,#241,.T.);
#140=PRODUCT('1','1','PART-1-DESC',(#242));
#141=PRODUCT_DEFINITION('NONE','NONE',#243,#2);
#142=AXIS2_PLACEMENT_3D('',#244,#245,#246);
#145=LENGTH_MEASURE_WITH_UNIT(LENGTH_MEASURE(1.0),#247);
#148=DIMENSIONAL_EXPONENTS(1.0,0.0,0.0,0.0,0.0,0.0,0.0);
#150=DIMENSIONAL_EXPONENTS(0.0,0.0,0.0,0.0,0.0,0.0,0.0);
#156=SURFACE_STYLE_USAGE(.BOTH.,#248);
#157=FACE_OUTER_BOUND('',#249,.T.);
#158=CYLINDRICAL_SURFACE('',#250,2.0);
#159=CURVE_STYLE('',#251,POSITIVE_LENGTH_MEASURE(1.0E-006),#252);
#160=CIRCLE('',#253,2.0);
#161=CURVE_STYLE('',#254,POSITIVE_LENGTH_MEASURE(1.0E-006),#255);
#162=CIRCLE('',#256,2.0);
#163=POINT_STYLE(' ',#257,POSITIVE_LENGTH_MEASURE(1.0E-006),#258);
#164=CARTESIAN_POINT('',(16.9740979140884,2.99999999995,-6.55));
#165=CURVE_STYLE('',#259,POSITIVE_LENGTH_MEASURE(1.0E-006),#260);
#166=LINE('',#261,#262);
#167=CURVE_STYLE('',#263,POSITIVE_LENGTH_MEASURE(1.0E-006),#264);
#168=LINE('',#265,#266);
#169=SURFACE_STYLE_USAGE(.BOTH.,#267);
#170=FACE_OUTER_BOUND('',#268,.T.);
#171=CYLINDRICAL_SURFACE('',#269,2.0);
#172=SURFACE_STYLE_USAGE(.BOTH.,#270);
#173=FACE_OUTER_BOUND('',#271,.T.);
#174=PLANE('',#272);
#175=POINT_STYLE(' ',#273,POSITIVE_LENGTH_MEASURE(1.0E-006),#274);
#176=CARTESIAN_POINT('',(7.62102355338966,13.19999999995,0.0));
#177=POINT_STYLE(' ',#275,POSITIVE_LENGTH_MEASURE(1.0E-006),#276);
#178=CARTESIAN_POINT('',(1.73205080756888,3.0,-6.55));
#179=POINT_STYLE(' ',#277,POSITIVE_LENGTH_MEASURE(1.0E-006),#278);
#180=CARTESIAN_POINT('',(1.73205080756888,3.0,0.0));
#181=CURVE_STYLE('',#279,POSITIVE_LENGTH_MEASURE(1.0E-006),#280);
#182=CIRCLE('',#281,2.0);
#183=CURVE_STYLE('',#282,POSITIVE_LENGTH_MEASURE(1.0E-006),#283);
#184=CIRCLE('',#284,2.0);
#185=CURVE_STYLE('',#285,POSITIVE_LENGTH_MEASURE(1.0E-006),#286);
#186=LINE('',#287,#288);
#187=CURVE_STYLE('',#289,POSITIVE_LENGTH_MEASURE(1.0E-006),#290);
#188=LINE('',#291,#292);
#189=POINT_STYLE(' ',#293,POSITIVE_LENGTH_MEASURE(1.0E-006),#294);
#190=CARTESIAN_POINT('',(3.46410161513775,0.0,0.0));
#191=SURFACE_STYLE_USAGE(.BOTH.,#295);
#192=FACE_OUTER_BOUND('',#296,.T.);
#193=PLANE('',#297);
#194=CURVE_STYLE('',#298,POSITIVE_LENGTH_MEASURE(1.0E-006),#299);
#195=CIRCLE('',#300,2.0);
#196=POINT_STYLE(' ',#301,POSITIVE_LENGTH_MEASURE(1.0E-006),#302);
#197=CARTESIAN_POINT('',(11.0851251684408,13.2,0.0));
#198=SURFACE_STYLE_USAGE(.BOTH.,#303);
#199=CLOSED_SHELL('',(#75,#133,#63,#95,#111,#123,#77,#115));
#200=CURVE_STYLE('',#304,POSITIVE_LENGTH_MEASURE(1.0E-006),#305);
#201=LINE('',#306,#307);
#202=POINT_STYLE(' ',#308,POSITIVE_LENGTH_MEASURE(1.0E-006),#309);
#203=CARTESIAN_POINT('',(15.2420471066061,0.0,0.0));
#204=CURVE_STYLE('',#310,POSITIVE_LENGTH_MEASURE(1.0E-006),#311);
#205=LINE('',#312,#313);
#206=CURVE_STYLE('',#314,POSITIVE_LENGTH_MEASURE(1.0E-006),#315);
#207=LINE('',#316,#317);
#208=SURFACE_STYLE_USAGE(.BOTH.,#318);
#209=FACE_OUTER_BOUND('',#319,.T.);
#210=CYLINDRICAL_SURFACE('',#320,2.0);
#211=CURVE_STYLE('',#321,POSITIVE_LENGTH_MEASURE(1.0E-006),#322);
#212=CIRCLE('',#323,2.0);
#213=SURFACE_STYLE_USAGE(.BOTH.,#324);
#214=FACE_OUTER_BOUND('',#325,.T.);
#215=PLANE('',#326);
#216=POINT_STYLE(' ',#327,POSITIVE_LENGTH_MEASURE(1.0E-006),#328);
#217=CARTESIAN_POINT('',(11.0851251684408,13.2,-6.55));
#218=CURVE_STYLE('',#329,POSITIVE_LENGTH_MEASURE(1.0E-006),#330);
#219=LINE('',#331,#332);
#220=POINT_STYLE(' ',#333,POSITIVE_LENGTH_MEASURE(1.0E-006),#334);
#221=CARTESIAN_POINT('',(15.2420471066061,0.0,-6.55));
#222=SURFACE_STYLE_USAGE(.BOTH.,#335);
#223=FACE_OUTER_BOUND('',#336,.T.);
#224=PLANE('',#337);
#225=POINT_STYLE(' ',#338,POSITIVE_LENGTH_MEASURE(1.0E-006),#339);
#226=CARTESIAN_POINT('',(3.46410161513775,0.0,-6.55));
#227=POINT_STYLE(' ',#340,POSITIVE_LENGTH_MEASURE(1.0E-006),#341);
#228=CARTESIAN_POINT('',(7.62102355338966,13.19999999995,-6.55));
#229=CURVE_STYLE('',#342,POSITIVE_LENGTH_MEASURE(1.0E-006),#343);
#230=LINE('',#344,#345);
#231=POINT_STYLE(' ',#346,POSITIVE_LENGTH_MEASURE(1.0E-006),#347);
#232=CARTESIAN_POINT('',(16.9740979140884,2.99999999995,0.0));
#233=SURFACE_STYLE_USAGE(.BOTH.,#348);
#234=FACE_OUTER_BOUND('',#349,.T.);
#235=PLANE('',#350);
#236=CURVE_STYLE('',#351,POSITIVE_LENGTH_MEASURE(1.0E-006),#352);
#237=LINE('',#353,#354);
#238=CURVE_STYLE('',#355,POSITIVE_LENGTH_MEASURE(1.0E-006),#356);
#239=LINE('',#357,#358);
#240=CURVE_STYLE('',#359,POSITIVE_LENGTH_MEASURE(1.0E-006),#360);
#241=LINE('',#361,#362);
#242=PRODUCT_CONTEXT('',#49,'mechanical');
#243=PRODUCT_DEFINITION_FORMATION_WITH_SPECIFIED_SOURCE(' ','NONE',#140,.NOT_KNOWN.);
#244=CARTESIAN_POINT('',(0.0,0.0,0.0));
#245=DIRECTION('',(0.0,0.0,1.0));
#246=DIRECTION('',(1.0,0.0,0.0));
#247= (NAMED_UNIT(#148)LENGTH_UNIT()SI_UNIT(.MILLI.,.METRE.));
#248=SURFACE_SIDE_STYLE('',(#364));
#249=EDGE_LOOP('',(#365,#366,#367,#368));
#250=AXIS2_PLACEMENT_3D('',#369,#370,#371);
#251=DRAUGHTING_PRE_DEFINED_CURVE_FONT('continuous');
#252=COLOUR_RGB('',0.800000011920929,0.800000011920929,0.800000011920929);
#253=AXIS2_PLACEMENT_3D('',#372,#373,#374);
#254=DRAUGHTING_PRE_DEFINED_CURVE_FONT('continuous');
#255=COLOUR_RGB('',0.800000011920929,0.800000011920929,0.800000011920929);
#256=AXIS2_PLACEMENT_3D('',#375,#376,#377);
#257=PRE_DEFINED_MARKER('');
#258=COLOUR_RGB('',0.800000011920929,0.800000011920929,0.800000011920929);
#259=DRAUGHTING_PRE_DEFINED_CURVE_FONT('continuous');
#260=COLOUR_RGB('',0.800000011920929,0.800000011920929,0.800000011920929);
#261=CARTESIAN_POINT('',(15.2420471066061,0.0,0.0));
#262=VECTOR('',#378,1.0);
#263=DRAUGHTING_PRE_DEFINED_CURVE_FONT('continuous');
#264=COLOUR_RGB('',0.800000011920929,0.800000011920929,0.800000011920929);
#265=CARTESIAN_POINT('',(7.62102355338966,13.19999999995,0.0));
#266=VECTOR('',#379,1.0);
#267=SURFACE_SIDE_STYLE('',(#380));
#268=EDGE_LOOP('',(#381,#382,#383,#384));
#269=AXIS2_PLACEMENT_3D('',#385,#386,#387);
#270=SURFACE_SIDE_STYLE('',(#388));
#271=EDGE_LOOP('',(#389,#390,#391,#392,#393,#394));
#272=AXIS2_PLACEMENT_3D('',#395,#396,#397);
#273=PRE_DEFINED_MARKER('');
#274=COLOUR_RGB('',0.800000011920929,0.800000011920929,0.800000011920929);
#275=PRE_DEFINED_MARKER('');
#276=COLOUR_RGB('',0.800000011920929,0.800000011920929,0.800000011920929);
#277=PRE_DEFINED_MARKER('');
#278=COLOUR_RGB('',0.800000011920929,0.800000011920929,0.800000011920929);
#279=DRAUGHTING_PRE_DEFINED_CURVE_FONT('continuous');
#280=COLOUR_RGB('',0.800000011920929,0.800000011920929,0.800000011920929);
#281=AXIS2_PLACEMENT_3D('',#398,#399,#400);
#282=DRAUGHTING_PRE_DEFINED_CURVE_FONT('continuous');
#283=COLOUR_RGB('',0.800000011920929,0.800000011920929,0.800000011920929);
#284=AXIS2_PLACEMENT_3D('',#401,#402,#403);
#285=DRAUGHTING_PRE_DEFINED_CURVE_FONT('continuous');
#286=COLOUR_RGB('',0.800000011920929,0.800000011920929,0.800000011920929);
#287=CARTESIAN_POINT('',(3.46410161513775,0.0,0.0));
#288=VECTOR('',#404,1.0);
#289=DRAUGHTING_PRE_DEFINED_CURVE_FONT('continuous');
#290=COLOUR_RGB('',0.800000011920929,0.800000011920929,0.800000011920929);
#291=CARTESIAN_POINT('',(3.46410161513775,0.0,-6.55));
#292=VECTOR('',#405,1.0);
#293=PRE_DEFINED_MARKER('');
#294=COLOUR_RGB('',0.800000011920929,0.800000011920929,0.800000011920929);
#295=SURFACE_SIDE_STYLE('',(#406));
#296=EDGE_LOOP('',(#407,#408,#409,#410));
#297=AXIS2_PLACEMENT_3D('',#411,#412,#413);
#298=DRAUGHTING_PRE_DEFINED_CURVE_FONT('continuous');
#299=COLOUR_RGB('',0.800000011920929,0.800000011920929,0.800000011920929);
#300=AXIS2_PLACEMENT_3D('',#414,#415,#416);
#301=PRE_DEFINED_MARKER('');
#302=COLOUR_RGB('',0.800000011920929,0.800000011920929,0.800000011920929);
#303=SURFACE_SIDE_STYLE('',(#417));
#304=DRAUGHTING_PRE_DEFINED_CURVE_FONT('continuous');
#305=COLOUR_RGB('',0.800000011920929,0.800000011920929,0.800000011920929);
#306=CARTESIAN_POINT('',(1.73205080756888,3.0,0.0));
#307=VECTOR('',#418,1.0);
#308=PRE_DEFINED_MARKER('');
#309=COLOUR_RGB('',0.800000011920929,0.800000011920929,0.800000011920929);
#310=DRAUGHTING_PRE_DEFINED_CURVE_FONT('continuous');
#311=COLOUR_RGB('',0.800000011920929,0.800000011920929,0.800000011920929);
#312=CARTESIAN_POINT('',(7.62102355330306,13.2,0.0));
#313=VECTOR('',#419,1.0);
#314=DRAUGHTING_PRE_DEFINED_CURVE_FONT('continuous');
#315=COLOUR_RGB('',0.800000011920929,0.800000011920929,0.800000011920929);
#316=CARTESIAN_POINT('',(16.974097914175,3.0,0.0));
#317=VECTOR('',#420,1.0);
#318=SURFACE_SIDE_STYLE('',(#421));
#319=EDGE_LOOP('',(#422,#423,#424,#425));
#320=AXIS2_PLACEMENT_3D('',#426,#427,#428);
#321=DRAUGHTING_PRE_DEFINED_CURVE_FONT('continuous');
#322=COLOUR_RGB('',0.800000011920929,0.800000011920929,0.800000011920929);
#323=AXIS2_PLACEMENT_3D('',#429,#430,#431);
#324=SURFACE_SIDE_STYLE('',(#432));
#325=EDGE_LOOP('',(#433,#434,#435,#436,#437,#438));
#326=AXIS2_PLACEMENT_3D('',#439,#440,#441);
#327=PRE_DEFINED_MARKER('');
#328=COLOUR_RGB('',0.800000011920929,0.800000011920929,0.800000011920929);
#329=DRAUGHTING_PRE_DEFINED_CURVE_FONT('continuous');
#330=COLOUR_RGB('',0.800000011920929,0.800000011920929,0.800000011920929);
#331=CARTESIAN_POINT('',(11.0851251684408,13.2,0.0));
#332=VECTOR('',#442,1.0);
#333=PRE_DEFINED_MARKER('');
#334=COLOUR_RGB('',0.800000011920929,0.800000011920929,0.800000011920929);
#335=SURFACE_SIDE_STYLE('',(#443));
#336=EDGE_LOOP('',(#444,#445,#446,#447));
#337=AXIS2_PLACEMENT_3D('',#448,#449,#450);
#338=PRE_DEFINED_MARKER('');
#339=COLOUR_RGB('',0.800000011920929,0.800000011920929,0.800000011920929);
#340=PRE_DEFINED_MARKER('');
#341=COLOUR_RGB('',0.800000011920929,0.800000011920929,0.800000011920929);
#342=DRAUGHTING_PRE_DEFINED_CURVE_FONT('continuous');
#343=COLOUR_RGB('',0.800000011920929,0.800000011920929,0.800000011920929);
#344=CARTESIAN_POINT('',(16.9740979140884,2.99999999995,0.0));
#345=VECTOR('',#451,1.0);
#346=PRE_DEFINED_MARKER('');
#347=COLOUR_RGB('',0.800000011920929,0.800000011920929,0.800000011920929);
#348=SURFACE_SIDE_STYLE('',(#452));
#349=EDGE_LOOP('',(#453,#454,#455,#456));
#350=AXIS2_PLACEMENT_3D('',#457,#458,#459);
#351=DRAUGHTING_PRE_DEFINED_CURVE_FONT('continuous');
#352=COLOUR_RGB('',0.800000011920929,0.800000011920929,0.800000011920929);
#353=CARTESIAN_POINT('',(16.974097914175,3.0,-6.55));
#354=VECTOR('',#460,1.0);
#355=DRAUGHTING_PRE_DEFINED_CURVE_FONT('continuous');
#356=COLOUR_RGB('',0.800000011920929,0.800000011920929,0.800000011920929);
#357=CARTESIAN_POINT('',(3.46410161513775,0.0,0.0));
#358=VECTOR('',#461,1.0);
#359=DRAUGHTING_PRE_DEFINED_CURVE_FONT('continuous');
#360=COLOUR_RGB('',0.800000011920929,0.800000011920929,0.800000011920929);
#361=CARTESIAN_POINT('',(7.62102355330306,13.2,-6.55));
#362=VECTOR('',#462,1.0);
#364=SURFACE_STYLE_FILL_AREA(#463);
#365=ORIENTED_EDGE('',*,*,#113,.T.);
#366=ORIENTED_EDGE('',*,*,#73,.F.);
#367=ORIENTED_EDGE('',*,*,#67,.F.);
#368=ORIENTED_EDGE('',*,*,#119,.T.);
#369=CARTESIAN_POINT('',(9.35307436087194,12.1999999998,0.0));
#370=DIRECTION('',(-0.0,-0.0,1.0));
#371=DIRECTION('',(0.866025403741137,0.500000000075001,0.0));
#372=CARTESIAN_POINT('',(3.46410161531096,2.0000000001,-6.55));
#373=DIRECTION('',(0.0,0.0,1.0));
#374=DIRECTION('',(-0.86602540382774,0.499999999924999,0.0));
#375=CARTESIAN_POINT('',(9.35307436087194,12.1999999998,0.0));
#376=DIRECTION('',(0.0,-0.0,1.0));
#377=DIRECTION('',(0.866025403741137,0.500000000075001,0.0));
#378=DIRECTION('',(0.0,0.0,-1.0));
#379=DIRECTION('',(0.0,0.0,-1.0));
#380=SURFACE_STYLE_FILL_AREA(#464);
#381=ORIENTED_EDGE('',*,*,#85,.T.);
#382=ORIENTED_EDGE('',*,*,#129,.F.);
#383=ORIENTED_EDGE('',*,*,#97,.F.);
#384=ORIENTED_EDGE('',*,*,#71,.T.);
#385=CARTESIAN_POINT('',(15.2420471064329,2.0000000001,0.0));
#386=DIRECTION('',(-0.0,-0.0,1.0));
#387=DIRECTION('',(8.66045013481198E-011,-1.0,0.0));
#388=SURFACE_STYLE_FILL_AREA(#465);
#389=ORIENTED_EDGE('',*,*,#85,.F.);
#390=ORIENTED_EDGE('',*,*,#91,.F.);
#391=ORIENTED_EDGE('',*,*,#65,.F.);
#392=ORIENTED_EDGE('',*,*,#139,.F.);
#393=ORIENTED_EDGE('',*,*,#113,.F.);
#394=ORIENTED_EDGE('',*,*,#135,.F.);
#395=CARTESIAN_POINT('',(9.35307436087194,5.4,-6.55));
#396=DIRECTION('',(0.0,0.0,1.0));
#397=DIRECTION('',(1.0,0.0,0.0));
#398=CARTESIAN_POINT('',(15.2420471064329,2.0000000001,-6.55));
#399=DIRECTION('',(0.0,0.0,1.0));
#400=DIRECTION('',(8.66045013481198E-011,-1.0,0.0));
#401=CARTESIAN_POINT('',(3.46410161531096,2.0000000001,0.0));
#402=DIRECTION('',(0.0,0.0,1.0));
#403=DIRECTION('',(-0.86602540382774,0.499999999924999,0.0));
#404=DIRECTION('',(1.0,0.0,0.0));
#405=DIRECTION('',(1.0,0.0,0.0));
#406=SURFACE_STYLE_FILL_AREA(#466);
#407=ORIENTED_EDGE('',*,*,#139,.T.);
#408=ORIENTED_EDGE('',*,*,#103,.F.);
#409=ORIENTED_EDGE('',*,*,#107,.F.);
#410=ORIENTED_EDGE('',*,*,#73,.T.);
#411=CARTESIAN_POINT('',(7.62102355338966,13.19999999995,0.0));
#412=DIRECTION('',(-0.866025403784439,0.5,0.0));
#413=DIRECTION('',(0.5,0.866025403784439,-0.0));
#414=CARTESIAN_POINT('',(15.2420471064329,2.0000000001,0.0));
#415=DIRECTION('',(0.0,0.0,1.0));
#416=DIRECTION('',(8.66045013481198E-011,-1.0,0.0));
#417=SURFACE_STYLE_FILL_AREA(#467);
#418=DIRECTION('',(0.0,0.0,-1.0));
#419=DIRECTION('',(-0.5,-0.866025403784439,0.0));
#420=DIRECTION('',(-0.5,0.866025403784439,0.0));
#421=SURFACE_STYLE_FILL_AREA(#468);
#422=ORIENTED_EDGE('',*,*,#65,.T.);
#423=ORIENTED_EDGE('',*,*,#137,.F.);
#424=ORIENTED_EDGE('',*,*,#87,.F.);
#425=ORIENTED_EDGE('',*,*,#103,.T.);
#426=CARTESIAN_POINT('',(3.46410161531096,2.0000000001,0.0));
#427=DIRECTION('',(-0.0,-0.0,1.0));
#428=DIRECTION('',(-0.86602540382774,0.499999999924999,0.0));
#429=CARTESIAN_POINT('',(9.35307436087194,12.1999999998,-6.55));
#430=DIRECTION('',(0.0,-0.0,1.0));
#431=DIRECTION('',(0.866025403741137,0.500000000075001,0.0));
#432=SURFACE_STYLE_FILL_AREA(#469);
#433=ORIENTED_EDGE('',*,*,#89,.T.);
#434=ORIENTED_EDGE('',*,*,#97,.T.);
#435=ORIENTED_EDGE('',*,*,#109,.T.);
#436=ORIENTED_EDGE('',*,*,#67,.T.);
#437=ORIENTED_EDGE('',*,*,#107,.T.);
#438=ORIENTED_EDGE('',*,*,#87,.T.);
#439=CARTESIAN_POINT('',(9.35307436087194,5.4,0.0));
#440=DIRECTION('',(0.0,0.0,1.0));
#441=DIRECTION('',(1.0,0.0,0.0));
#442=DIRECTION('',(0.0,0.0,-1.0));
#443=SURFACE_STYLE_FILL_AREA(#470);
#444=ORIENTED_EDGE('',*,*,#91,.T.);
#445=ORIENTED_EDGE('',*,*,#71,.F.);
#446=ORIENTED_EDGE('',*,*,#89,.F.);
#447=ORIENTED_EDGE('',*,*,#137,.T.);
#448=CARTESIAN_POINT('',(3.46410161513775,0.0,0.0));
#449=DIRECTION('',(0.0,-1.0,-0.0));
#450=DIRECTION('',(-1.0,0.0,-0.0));
#451=DIRECTION('',(0.0,0.0,-1.0));
#452=SURFACE_STYLE_FILL_AREA(#471);
#453=ORIENTED_EDGE('',*,*,#135,.T.);
#454=ORIENTED_EDGE('',*,*,#119,.F.);
#455=ORIENTED_EDGE('',*,*,#109,.F.);
#456=ORIENTED_EDGE('',*,*,#129,.T.);
#457=CARTESIAN_POINT('',(16.9740979140884,2.99999999995,0.0));
#458=DIRECTION('',(0.866025403784439,0.5,0.0));
#459=DIRECTION('',(0.5,-0.866025403784439,-0.0));
#460=DIRECTION('',(-0.5,0.866025403784439,0.0));
#461=DIRECTION('',(0.0,0.0,-1.0));
#462=DIRECTION('',(-0.5,-0.866025403784439,0.0));
#463=FILL_AREA_STYLE('',(#472));
#464=FILL_AREA_STYLE('',(#473));
#465=FILL_AREA_STYLE('',(#474));
#466=FILL_AREA_STYLE('',(#475));
#467=FILL_AREA_STYLE('',(#476));
#468=FILL_AREA_STYLE('',(#477));
#469=FILL_AREA_STYLE('',(#478));
#470=FILL_AREA_STYLE('',(#479));
#471=FILL_AREA_STYLE('',(#480));
#472=FILL_AREA_STYLE_COLOUR('',#481);
#473=FILL_AREA_STYLE_COLOUR('',#482);
#474=FILL_AREA_STYLE_COLOUR('',#483);
#475=FILL_AREA_STYLE_COLOUR('',#484);
#476=FILL_AREA_STYLE_COLOUR('',#485);
#477=FILL_AREA_STYLE_COLOUR('',#486);
#478=FILL_AREA_STYLE_COLOUR('',#487);
#479=FILL_AREA_STYLE_COLOUR('',#488);
#480=FILL_AREA_STYLE_COLOUR('',#489);
#481=COLOUR_RGB('',0.800000011920929,0.800000011920929,0.800000011920929);
#482=COLOUR_RGB('',0.800000011920929,0.800000011920929,0.800000011920929);
#483=COLOUR_RGB('',0.800000011920929,0.800000011920929,0.800000011920929);
#484=COLOUR_RGB('',0.800000011920929,0.800000011920929,0.800000011920929);
#485=COLOUR_RGB('',0.800000011920929,0.800000011920929,0.800000011920929);
#486=COLOUR_RGB('',0.800000011920929,0.800000011920929,0.800000011920929);
#487=COLOUR_RGB('',0.800000011920929,0.800000011920929,0.800000011920929);
#488=COLOUR_RGB('',0.800000011920929,0.800000011920929,0.800000011920929);
#489=COLOUR_RGB('',0.800000011920929,0.800000011920929,0.800000011920929);
#490=AXIS2_PLACEMENT_3D('PCS',#491,#492,#493);
#491=CARTESIAN_POINT('',(0.0,0.0,0.0));
#492=DIRECTION('',(0.0,0.0,1.0));
#493=DIRECTION('',(1.0,0.0,0.0));
#494=AXIS2_PLACEMENT_3D('MCS',#495,#496,#497);
#495=CARTESIAN_POINT('',(9.35307436,5.4,0.0));
#496=DIRECTION('',(0.0,0.0,1.0));
#497=DIRECTION('',(1.0,0.0,0.0));
#498=CONSTRUCTIVE_GEOMETRY_REPRESENTATION_RELATIONSHIP('coordinate systems',$,#53,#499);
#499=CONSTRUCTIVE_GEOMETRY_REPRESENTATION('coordinate systems',(#490,#494),#6);
ENDSEC;
END-ISO-10303-21;
