ISO-10303-21;
HEADER;
FILE_DESCRIPTION(('no description'),'unknown implementation level');
FILE_NAME('solidn6YNj0PnuFd4MiXa7hox_CD85xY_1.STP','  ',('CIMSOURCE GmbH'),('CADClick - KiM GmbH - www.kimweb.de'),'unknown preprocess','ACIS','unknown authorization');
FILE_SCHEMA(('automotive_design'));
ENDSEC;
DATA;
#1=MECHANICAL_DESIGN_GEOMETRIC_PRESENTATION_REPRESENTATION(' ',(#10,#11,#12,#13,#14,#15,#16,#17,#18,#19,#20,#21,#22,#23,#24,#25,#26,#27,#28,#29,#30,#31,#32,#33,#34,#35,#36,#37,#38,#39,#40,#41,#42,#43,#44,#45,#46,#47,#48,#49,#50,#51,#52,#53,#54,#55,#56,#57,#58,#59,#60),#6);
#2=PRODUCT_DEFINITION_CONTEXT('',#61,'design');
#3=APPLICATION_PROTOCOL_DEFINITION('INTERNATIONAL STANDARD','automotive_design',1994,#61);
#4=PRODUCT_CATEGORY_RELATIONSHIP('NONE','NONE',#62,#63);
#5=SHAPE_DEFINITION_REPRESENTATION(#64,#65);
#6= (GEOMETRIC_REPRESENTATION_CONTEXT(3)GLOBAL_UNCERTAINTY_ASSIGNED_CONTEXT((#68))GLOBAL_UNIT_ASSIGNED_CONTEXT((#70,#71,#72))REPRESENTATION_CONTEXT('NONE','WORKSPACE'));
#10=STYLED_ITEM('',(#74),#75);
#11=STYLED_ITEM('',(#76),#77);
#12=STYLED_ITEM('',(#78),#79);
#13=STYLED_ITEM('',(#80),#81);
#14=STYLED_ITEM('',(#82),#83);
#15=STYLED_ITEM('',(#84),#85);
#16=STYLED_ITEM('',(#86),#87);
#17=STYLED_ITEM('',(#88),#89);
#18=STYLED_ITEM('',(#90),#91);
#19=STYLED_ITEM('',(#92),#93);
#20=STYLED_ITEM('',(#94),#95);
#21=STYLED_ITEM('',(#96),#97);
#22=STYLED_ITEM('',(#98),#99);
#23=STYLED_ITEM('',(#100),#101);
#24=STYLED_ITEM('',(#102),#103);
#25=STYLED_ITEM('',(#104),#105);
#26=STYLED_ITEM('',(#106),#107);
#27=STYLED_ITEM('',(#108),#109);
#28=STYLED_ITEM('',(#110),#111);
#29=STYLED_ITEM('',(#112),#113);
#30=STYLED_ITEM('',(#114),#115);
#31=STYLED_ITEM('',(#116),#117);
#32=STYLED_ITEM('',(#118),#119);
#33=STYLED_ITEM('',(#120),#121);
#34=STYLED_ITEM('',(#122),#123);
#35=STYLED_ITEM('',(#124),#125);
#36=STYLED_ITEM('',(#126),#127);
#37=STYLED_ITEM('',(#128),#129);
#38=STYLED_ITEM('',(#130),#131);
#39=STYLED_ITEM('',(#132),#133);
#40=STYLED_ITEM('',(#134),#135);
#41=STYLED_ITEM('',(#136),#137);
#42=STYLED_ITEM('',(#138),#139);
#43=STYLED_ITEM('',(#140),#141);
#44=STYLED_ITEM('',(#142),#143);
#45=STYLED_ITEM('',(#144),#145);
#46=STYLED_ITEM('',(#146),#147);
#47=STYLED_ITEM('',(#148),#149);
#48=STYLED_ITEM('',(#150),#151);
#49=STYLED_ITEM('',(#152),#153);
#50=STYLED_ITEM('',(#154),#155);
#51=STYLED_ITEM('',(#156),#157);
#52=STYLED_ITEM('',(#158),#159);
#53=STYLED_ITEM('',(#160),#161);
#54=STYLED_ITEM('',(#162),#163);
#55=STYLED_ITEM('',(#164),#165);
#56=STYLED_ITEM('',(#166),#167);
#57=STYLED_ITEM('',(#168),#169);
#58=STYLED_ITEM('',(#170),#171);
#59=STYLED_ITEM('',(#172),#173);
#60=STYLED_ITEM('',(#174),#175);
#61=APPLICATION_CONTEXT(' ');
#62=PRODUCT_CATEGORY('part','NONE');
#63=PRODUCT_RELATED_PRODUCT_CATEGORY('detail',' ',(#176));
#64=PRODUCT_DEFINITION_SHAPE('NONE','NONE',#177);
#65=ADVANCED_BREP_SHAPE_REPRESENTATION('1',(#117,#178),#6);
#68=UNCERTAINTY_MEASURE_WITH_UNIT(LENGTH_MEASURE(1.0E-006),#70,'','');
#70= (CONVERSION_BASED_UNIT('MILLIMETRE',#181)LENGTH_UNIT()NAMED_UNIT(#184));
#71= (NAMED_UNIT(#186)PLANE_ANGLE_UNIT()SI_UNIT($,.RADIAN.));
#72= (NAMED_UNIT(#186)SOLID_ANGLE_UNIT()SI_UNIT($,.STERADIAN.));
#74=PRESENTATION_STYLE_ASSIGNMENT((#192));
#75=EDGE_CURVE('',#111,#103,#193,.T.);
#76=PRESENTATION_STYLE_ASSIGNMENT((#194));
#77=VERTEX_POINT('',#195);
#78=PRESENTATION_STYLE_ASSIGNMENT((#196));
#79=VERTEX_POINT('',#197);
#80=PRESENTATION_STYLE_ASSIGNMENT((#198));
#81=EDGE_CURVE('',#95,#111,#199,.T.);
#82=PRESENTATION_STYLE_ASSIGNMENT((#200));
#83=ADVANCED_FACE('',(#201),#202,.T.);
#84=PRESENTATION_STYLE_ASSIGNMENT((#203));
#85=ADVANCED_FACE('',(#204),#205,.T.);
#86=PRESENTATION_STYLE_ASSIGNMENT((#206));
#87=ADVANCED_FACE('',(#207),#208,.T.);
#88=PRESENTATION_STYLE_ASSIGNMENT((#209));
#89=ADVANCED_FACE('',(#210),#211,.T.);
#90=PRESENTATION_STYLE_ASSIGNMENT((#212));
#91=EDGE_CURVE('',#145,#131,#213,.T.);
#92=PRESENTATION_STYLE_ASSIGNMENT((#214));
#93=EDGE_CURVE('',#115,#151,#215,.T.);
#94=PRESENTATION_STYLE_ASSIGNMENT((#216));
#95=VERTEX_POINT('',#217);
#96=PRESENTATION_STYLE_ASSIGNMENT((#218));
#97=VERTEX_POINT('',#219);
#98=PRESENTATION_STYLE_ASSIGNMENT((#220));
#99=EDGE_CURVE('',#123,#131,#221,.T.);
#100=PRESENTATION_STYLE_ASSIGNMENT((#222));
#101=ADVANCED_FACE('',(#223),#224,.T.);
#102=PRESENTATION_STYLE_ASSIGNMENT((#225));
#103=VERTEX_POINT('',#226);
#104=PRESENTATION_STYLE_ASSIGNMENT((#227));
#105=EDGE_CURVE('',#131,#77,#228,.T.);
#106=PRESENTATION_STYLE_ASSIGNMENT((#229));
#107=EDGE_CURVE('',#163,#123,#230,.T.);
#108=PRESENTATION_STYLE_ASSIGNMENT((#231));
#109=EDGE_CURVE('',#151,#153,#232,.T.);
#110=PRESENTATION_STYLE_ASSIGNMENT((#233));
#111=VERTEX_POINT('',#234);
#112=PRESENTATION_STYLE_ASSIGNMENT((#235));
#113=EDGE_CURVE('',#153,#145,#236,.T.);
#114=PRESENTATION_STYLE_ASSIGNMENT((#237));
#115=VERTEX_POINT('',#238);
#116=PRESENTATION_STYLE_ASSIGNMENT((#239));
#117=MANIFOLD_SOLID_BREP('1',#240);
#118=PRESENTATION_STYLE_ASSIGNMENT((#241));
#119=ADVANCED_FACE('',(#242),#243,.T.);
#120=PRESENTATION_STYLE_ASSIGNMENT((#244));
#121=ADVANCED_FACE('',(#245),#246,.T.);
#122=PRESENTATION_STYLE_ASSIGNMENT((#247));
#123=VERTEX_POINT('',#248);
#124=PRESENTATION_STYLE_ASSIGNMENT((#249));
#125=EDGE_CURVE('',#79,#129,#250,.T.);
#126=PRESENTATION_STYLE_ASSIGNMENT((#251));
#127=ADVANCED_FACE('',(#252),#253,.F.);
#128=PRESENTATION_STYLE_ASSIGNMENT((#254));
#129=VERTEX_POINT('',#255);
#130=PRESENTATION_STYLE_ASSIGNMENT((#256));
#131=VERTEX_POINT('',#257);
#132=PRESENTATION_STYLE_ASSIGNMENT((#258));
#133=VERTEX_POINT('',#259);
#134=PRESENTATION_STYLE_ASSIGNMENT((#260));
#135=EDGE_CURVE('',#129,#133,#261,.T.);
#136=PRESENTATION_STYLE_ASSIGNMENT((#262));
#137=EDGE_CURVE('',#97,#133,#263,.T.);
#138=PRESENTATION_STYLE_ASSIGNMENT((#264));
#139=EDGE_CURVE('',#133,#155,#265,.T.);
#140=PRESENTATION_STYLE_ASSIGNMENT((#266));
#141=EDGE_CURVE('',#155,#163,#267,.T.);
#142=PRESENTATION_STYLE_ASSIGNMENT((#268));
#143=EDGE_CURVE('',#103,#129,#269,.T.);
#144=PRESENTATION_STYLE_ASSIGNMENT((#270));
#145=VERTEX_POINT('',#271);
#146=PRESENTATION_STYLE_ASSIGNMENT((#272));
#147=EDGE_CURVE('',#145,#95,#273,.T.);
#148=PRESENTATION_STYLE_ASSIGNMENT((#274));
#149=EDGE_CURVE('',#115,#155,#275,.T.);
#150=PRESENTATION_STYLE_ASSIGNMENT((#276));
#151=VERTEX_POINT('',#277);
#152=PRESENTATION_STYLE_ASSIGNMENT((#278));
#153=VERTEX_POINT('',#279);
#154=PRESENTATION_STYLE_ASSIGNMENT((#280));
#155=VERTEX_POINT('',#281);
#156=PRESENTATION_STYLE_ASSIGNMENT((#282));
#157=ADVANCED_FACE('',(#283),#284,.T.);
#158=PRESENTATION_STYLE_ASSIGNMENT((#285));
#159=EDGE_CURVE('',#103,#97,#286,.T.);
#160=PRESENTATION_STYLE_ASSIGNMENT((#287));
#161=EDGE_CURVE('',#97,#115,#288,.T.);
#162=PRESENTATION_STYLE_ASSIGNMENT((#289));
#163=VERTEX_POINT('',#290);
#164=PRESENTATION_STYLE_ASSIGNMENT((#291));
#165=EDGE_CURVE('',#153,#123,#292,.T.);
#166=PRESENTATION_STYLE_ASSIGNMENT((#293));
#167=ADVANCED_FACE('',(#294),#295,.T.);
#168=PRESENTATION_STYLE_ASSIGNMENT((#296));
#169=EDGE_CURVE('',#95,#77,#297,.T.);
#170=PRESENTATION_STYLE_ASSIGNMENT((#298));
#171=EDGE_CURVE('',#77,#79,#299,.T.);
#172=PRESENTATION_STYLE_ASSIGNMENT((#300));
#173=EDGE_CURVE('',#111,#79,#301,.T.);
#174=PRESENTATION_STYLE_ASSIGNMENT((#302));
#175=EDGE_CURVE('',#151,#163,#303,.T.);
#176=PRODUCT('1','1','PART-1-DESC',(#304));
#177=PRODUCT_DEFINITION('NONE','NONE',#305,#2);
#178=AXIS2_PLACEMENT_3D('',#306,#307,#308);
#181=LENGTH_MEASURE_WITH_UNIT(LENGTH_MEASURE(1.0),#309);
#184=DIMENSIONAL_EXPONENTS(1.0,0.0,0.0,0.0,0.0,0.0,0.0);
#186=DIMENSIONAL_EXPONENTS(0.0,0.0,0.0,0.0,0.0,0.0,0.0);
#192=CURVE_STYLE('',#310,POSITIVE_LENGTH_MEASURE(1.0E-006),#311);
#193=CIRCLE('',#312,0.999999999999998);
#194=POINT_STYLE(' ',#313,POSITIVE_LENGTH_MEASURE(1.0E-006),#314);
#195=CARTESIAN_POINT('',(11.9460900640552,1.0,-4.76));
#196=POINT_STYLE(' ',#315,POSITIVE_LENGTH_MEASURE(1.0E-006),#316);
#197=CARTESIAN_POINT('',(11.9460900639552,11.6999999999246,-4.76));
#198=CURVE_STYLE('',#317,POSITIVE_LENGTH_MEASURE(1.0E-006),#318);
#199=LINE('',#319,#320);
#200=SURFACE_STYLE_USAGE(.BOTH.,#321);
#201=FACE_OUTER_BOUND('',#322,.T.);
#202=PLANE('',#323);
#203=SURFACE_STYLE_USAGE(.BOTH.,#324);
#204=FACE_OUTER_BOUND('',#325,.T.);
#205=PLANE('',#326);
#206=SURFACE_STYLE_USAGE(.BOTH.,#327);
#207=FACE_OUTER_BOUND('',#328,.T.);
#208=PLANE('',#329);
#209=SURFACE_STYLE_USAGE(.BOTH.,#330);
#210=FACE_OUTER_BOUND('',#331,.T.);
#211=CONICAL_SURFACE('',#332,1.0,0.15707963267949);
#212=CURVE_STYLE('',#333,POSITIVE_LENGTH_MEASURE(1.0E-006),#334);
#213=LINE('',#335,#336);
#214=CURVE_STYLE('',#337,POSITIVE_LENGTH_MEASURE(1.0E-006),#338);
#215=LINE('',#339,#340);
#216=POINT_STYLE(' ',#341,POSITIVE_LENGTH_MEASURE(1.0E-006),#342);
#217=CARTESIAN_POINT('',(12.6999999999,1.0,0.0));
#218=POINT_STYLE(' ',#343,POSITIVE_LENGTH_MEASURE(1.0E-006),#344);
#219=CARTESIAN_POINT('',(1.0,12.7,0.0));
#220=CURVE_STYLE('',#345,POSITIVE_LENGTH_MEASURE(1.0E-006),#346);
#221=LINE('',#347,#348);
#222=SURFACE_STYLE_USAGE(.BOTH.,#349);
#223=FACE_OUTER_BOUND('',#350,.T.);
#224=CONICAL_SURFACE('',#351,1.0,0.15707963267949);
#225=POINT_STYLE(' ',#352,POSITIVE_LENGTH_MEASURE(1.0E-006),#353);
#226=CARTESIAN_POINT('',(11.7,12.6999999999,0.0));
#227=CURVE_STYLE('',#354,POSITIVE_LENGTH_MEASURE(1.0E-006),#355);
#228=CIRCLE('',#356,0.246090064055206);
#229=CURVE_STYLE('',#357,POSITIVE_LENGTH_MEASURE(1.0E-006),#358);
#230=CIRCLE('',#359,0.246090064055207);
#231=CURVE_STYLE('',#360,POSITIVE_LENGTH_MEASURE(1.0E-006),#361);
#232=CIRCLE('',#362,1.0);
#233=POINT_STYLE(' ',#363,POSITIVE_LENGTH_MEASURE(1.0E-006),#364);
#234=CARTESIAN_POINT('',(12.7,11.7,0.0));
#235=CURVE_STYLE('',#365,POSITIVE_LENGTH_MEASURE(1.0E-006),#366);
#236=LINE('',#367,#368);
#237=POINT_STYLE(' ',#369,POSITIVE_LENGTH_MEASURE(1.0E-006),#370);
#238=CARTESIAN_POINT('',(1.00000008274037E-010,11.7,0.0));
#239=SURFACE_STYLE_USAGE(.BOTH.,#371);
#240=CLOSED_SHELL('',(#101,#83,#157,#167,#121,#87,#89,#85,#127,#119));
#241=SURFACE_STYLE_USAGE(.BOTH.,#372);
#242=FACE_OUTER_BOUND('',#373,.T.);
#243=PLANE('',#374);
#244=SURFACE_STYLE_USAGE(.BOTH.,#375);
#245=FACE_OUTER_BOUND('',#376,.T.);
#246=CONICAL_SURFACE('',#377,0.999999999999998,0.15707963267949);
#247=POINT_STYLE(' ',#378,POSITIVE_LENGTH_MEASURE(1.0E-006),#379);
#248=CARTESIAN_POINT('',(1.0,0.753909935944794,-4.76));
#249=CURVE_STYLE('',#380,POSITIVE_LENGTH_MEASURE(1.0E-006),#381);
#250=CIRCLE('',#382,0.246090064055204);
#251=SURFACE_STYLE_USAGE(.BOTH.,#383);
#252=FACE_OUTER_BOUND('',#384,.T.);
#253=PLANE('',#385);
#254=POINT_STYLE(' ',#386,POSITIVE_LENGTH_MEASURE(1.0E-006),#387);
#255=CARTESIAN_POINT('',(11.7,11.9460900640552,-4.76));
#256=POINT_STYLE(' ',#388,POSITIVE_LENGTH_MEASURE(1.0E-006),#389);
#257=CARTESIAN_POINT('',(11.6999999999246,0.753909936044794,-4.76));
#258=POINT_STYLE(' ',#390,POSITIVE_LENGTH_MEASURE(1.0E-006),#391);
#259=CARTESIAN_POINT('',(1.00000000007539,11.9460900639552,-4.76));
#260=CURVE_STYLE('',#392,POSITIVE_LENGTH_MEASURE(1.0E-006),#393);
#261=LINE('',#394,#395);
#262=CURVE_STYLE('',#396,POSITIVE_LENGTH_MEASURE(1.0E-006),#397);
#263=LINE('',#398,#399);
#264=CURVE_STYLE('',#400,POSITIVE_LENGTH_MEASURE(1.0E-006),#401);
#265=CIRCLE('',#402,0.246090064055204);
#266=CURVE_STYLE('',#403,POSITIVE_LENGTH_MEASURE(1.0E-006),#404);
#267=LINE('',#405,#406);
#268=CURVE_STYLE('',#407,POSITIVE_LENGTH_MEASURE(1.0E-006),#408);
#269=LINE('',#409,#410);
#270=POINT_STYLE(' ',#411,POSITIVE_LENGTH_MEASURE(1.0E-006),#412);
#271=CARTESIAN_POINT('',(11.7,0.0,0.0));
#272=CURVE_STYLE('',#413,POSITIVE_LENGTH_MEASURE(1.0E-006),#414);
#273=CIRCLE('',#415,1.0);
#274=CURVE_STYLE('',#416,POSITIVE_LENGTH_MEASURE(1.0E-006),#417);
#275=LINE('',#418,#419);
#276=POINT_STYLE(' ',#420,POSITIVE_LENGTH_MEASURE(1.0E-006),#421);
#277=CARTESIAN_POINT('',(0.0,1.0,0.0));
#278=POINT_STYLE(' ',#422,POSITIVE_LENGTH_MEASURE(1.0E-006),#423);
#279=CARTESIAN_POINT('',(1.0,0.0,0.0));
#280=POINT_STYLE(' ',#424,POSITIVE_LENGTH_MEASURE(1.0E-006),#425);
#281=CARTESIAN_POINT('',(0.753909935944794,11.7,-4.76));
#282=SURFACE_STYLE_USAGE(.BOTH.,#426);
#283=FACE_OUTER_BOUND('',#427,.T.);
#284=CONICAL_SURFACE('',#428,0.999999999999998,0.15707963267949);
#285=CURVE_STYLE('',#429,POSITIVE_LENGTH_MEASURE(1.0E-006),#430);
#286=LINE('',#431,#432);
#287=CURVE_STYLE('',#433,POSITIVE_LENGTH_MEASURE(1.0E-006),#434);
#288=CIRCLE('',#435,0.999999999999998);
#289=POINT_STYLE(' ',#436,POSITIVE_LENGTH_MEASURE(1.0E-006),#437);
#290=CARTESIAN_POINT('',(0.753909936044794,1.00000000007539,-4.76));
#291=CURVE_STYLE('',#438,POSITIVE_LENGTH_MEASURE(1.0E-006),#439);
#292=LINE('',#440,#441);
#293=SURFACE_STYLE_USAGE(.BOTH.,#442);
#294=FACE_OUTER_BOUND('',#443,.T.);
#295=PLANE('',#444);
#296=CURVE_STYLE('',#445,POSITIVE_LENGTH_MEASURE(1.0E-006),#446);
#297=LINE('',#447,#448);
#298=CURVE_STYLE('',#449,POSITIVE_LENGTH_MEASURE(1.0E-006),#450);
#299=LINE('',#451,#452);
#300=CURVE_STYLE('',#453,POSITIVE_LENGTH_MEASURE(1.0E-006),#454);
#301=LINE('',#455,#456);
#302=CURVE_STYLE('',#457,POSITIVE_LENGTH_MEASURE(1.0E-006),#458);
#303=LINE('',#459,#460);
#304=PRODUCT_CONTEXT('',#61,'mechanical');
#305=PRODUCT_DEFINITION_FORMATION_WITH_SPECIFIED_SOURCE(' ','NONE',#176,.NOT_KNOWN.);
#306=CARTESIAN_POINT('',(0.0,0.0,0.0));
#307=DIRECTION('',(0.0,0.0,1.0));
#308=DIRECTION('',(1.0,0.0,0.0));
#309= (NAMED_UNIT(#184)LENGTH_UNIT()SI_UNIT(.MILLI.,.METRE.));
#310=DRAUGHTING_PRE_DEFINED_CURVE_FONT('continuous');
#311=COLOUR_RGB('',0.800000011920929,0.800000011920929,0.800000011920929);
#312=AXIS2_PLACEMENT_3D('',#462,#463,#464);
#313=PRE_DEFINED_MARKER('');
#314=COLOUR_RGB('',0.800000011920929,0.800000011920929,0.800000011920929);
#315=PRE_DEFINED_MARKER('');
#316=COLOUR_RGB('',0.800000011920929,0.800000011920929,0.800000011920929);
#317=DRAUGHTING_PRE_DEFINED_CURVE_FONT('continuous');
#318=COLOUR_RGB('',0.800000011920929,0.800000011920929,0.800000011920929);
#319=CARTESIAN_POINT('',(12.7,1.0,0.0));
#320=VECTOR('',#465,1.0);
#321=SURFACE_SIDE_STYLE('',(#466));
#322=EDGE_LOOP('',(#467,#468,#469,#470));
#323=AXIS2_PLACEMENT_3D('',#471,#472,#473);
#324=SURFACE_SIDE_STYLE('',(#474));
#325=EDGE_LOOP('',(#475,#476,#477,#478));
#326=AXIS2_PLACEMENT_3D('',#479,#480,#481);
#327=SURFACE_SIDE_STYLE('',(#482));
#328=EDGE_LOOP('',(#483,#484,#485,#486));
#329=AXIS2_PLACEMENT_3D('',#487,#488,#489);
#330=SURFACE_SIDE_STYLE('',(#490));
#331=EDGE_LOOP('',(#491,#492,#493,#494));
#332=AXIS2_PLACEMENT_3D('',#495,#496,#497);
#333=DRAUGHTING_PRE_DEFINED_CURVE_FONT('continuous');
#334=COLOUR_RGB('',0.800000011920929,0.800000011920929,0.800000011920929);
#335=CARTESIAN_POINT('',(11.7,0.0,0.0));
#336=VECTOR('',#498,1.0);
#337=DRAUGHTING_PRE_DEFINED_CURVE_FONT('continuous');
#338=COLOUR_RGB('',0.800000011920929,0.800000011920929,0.800000011920929);
#339=CARTESIAN_POINT('',(0.0,11.7,0.0));
#340=VECTOR('',#499,1.0);
#341=PRE_DEFINED_MARKER('');
#342=COLOUR_RGB('',0.800000011920929,0.800000011920929,0.800000011920929);
#343=PRE_DEFINED_MARKER('');
#344=COLOUR_RGB('',0.800000011920929,0.800000011920929,0.800000011920929);
#345=DRAUGHTING_PRE_DEFINED_CURVE_FONT('continuous');
#346=COLOUR_RGB('',0.800000011920929,0.800000011920929,0.800000011920929);
#347=CARTESIAN_POINT('',(1.0,0.753909935944794,-4.76));
#348=VECTOR('',#500,1.0);
#349=SURFACE_SIDE_STYLE('',(#501));
#350=EDGE_LOOP('',(#502,#503,#504,#505));
#351=AXIS2_PLACEMENT_3D('',#506,#507,#508);
#352=PRE_DEFINED_MARKER('');
#353=COLOUR_RGB('',0.800000011920929,0.800000011920929,0.800000011920929);
#354=DRAUGHTING_PRE_DEFINED_CURVE_FONT('continuous');
#355=COLOUR_RGB('',0.800000011920929,0.800000011920929,0.800000011920929);
#356=AXIS2_PLACEMENT_3D('',#509,#510,#511);
#357=DRAUGHTING_PRE_DEFINED_CURVE_FONT('continuous');
#358=COLOUR_RGB('',0.800000011920929,0.800000011920929,0.800000011920929);
#359=AXIS2_PLACEMENT_3D('',#512,#513,#514);
#360=DRAUGHTING_PRE_DEFINED_CURVE_FONT('continuous');
#361=COLOUR_RGB('',0.800000011920929,0.800000011920929,0.800000011920929);
#362=AXIS2_PLACEMENT_3D('',#515,#516,#517);
#363=PRE_DEFINED_MARKER('');
#364=COLOUR_RGB('',0.800000011920929,0.800000011920929,0.800000011920929);
#365=DRAUGHTING_PRE_DEFINED_CURVE_FONT('continuous');
#366=COLOUR_RGB('',0.800000011920929,0.800000011920929,0.800000011920929);
#367=CARTESIAN_POINT('',(1.0,0.0,0.0));
#368=VECTOR('',#518,1.0);
#369=PRE_DEFINED_MARKER('');
#370=COLOUR_RGB('',0.800000011920929,0.800000011920929,0.800000011920929);
#371=SURFACE_SIDE_STYLE('',(#519));
#372=SURFACE_SIDE_STYLE('',(#520));
#373=EDGE_LOOP('',(#521,#522,#523,#524,#525,#526,#527,#528));
#374=AXIS2_PLACEMENT_3D('',#529,#530,#531);
#375=SURFACE_SIDE_STYLE('',(#532));
#376=EDGE_LOOP('',(#533,#534,#535,#536));
#377=AXIS2_PLACEMENT_3D('',#537,#538,#539);
#378=PRE_DEFINED_MARKER('');
#379=COLOUR_RGB('',0.800000011920929,0.800000011920929,0.800000011920929);
#380=DRAUGHTING_PRE_DEFINED_CURVE_FONT('continuous');
#381=COLOUR_RGB('',0.800000011920929,0.800000011920929,0.800000011920929);
#382=AXIS2_PLACEMENT_3D('',#540,#541,#542);
#383=SURFACE_SIDE_STYLE('',(#543));
#384=EDGE_LOOP('',(#544,#545,#546,#547,#548,#549,#550,#551));
#385=AXIS2_PLACEMENT_3D('',#552,#553,#554);
#386=PRE_DEFINED_MARKER('');
#387=COLOUR_RGB('',0.800000011920929,0.800000011920929,0.800000011920929);
#388=PRE_DEFINED_MARKER('');
#389=COLOUR_RGB('',0.800000011920929,0.800000011920929,0.800000011920929);
#390=PRE_DEFINED_MARKER('');
#391=COLOUR_RGB('',0.800000011920929,0.800000011920929,0.800000011920929);
#392=DRAUGHTING_PRE_DEFINED_CURVE_FONT('continuous');
#393=COLOUR_RGB('',0.800000011920929,0.800000011920929,0.800000011920929);
#394=CARTESIAN_POINT('',(11.7,11.9460900640552,-4.76));
#395=VECTOR('',#555,1.0);
#396=DRAUGHTING_PRE_DEFINED_CURVE_FONT('continuous');
#397=COLOUR_RGB('',0.800000011920929,0.800000011920929,0.800000011920929);
#398=CARTESIAN_POINT('',(1.0,12.7,0.0));
#399=VECTOR('',#556,1.0);
#400=DRAUGHTING_PRE_DEFINED_CURVE_FONT('continuous');
#401=COLOUR_RGB('',0.800000011920929,0.800000011920929,0.800000011920929);
#402=AXIS2_PLACEMENT_3D('',#557,#558,#559);
#403=DRAUGHTING_PRE_DEFINED_CURVE_FONT('continuous');
#404=COLOUR_RGB('',0.800000011920929,0.800000011920929,0.800000011920929);
#405=CARTESIAN_POINT('',(0.753909935944794,11.7,-4.76));
#406=VECTOR('',#560,1.0);
#407=DRAUGHTING_PRE_DEFINED_CURVE_FONT('continuous');
#408=COLOUR_RGB('',0.800000011920929,0.800000011920929,0.800000011920929);
#409=CARTESIAN_POINT('',(11.7,12.6999999999,0.0));
#410=VECTOR('',#561,1.0);
#411=PRE_DEFINED_MARKER('');
#412=COLOUR_RGB('',0.800000011920929,0.800000011920929,0.800000011920929);
#413=DRAUGHTING_PRE_DEFINED_CURVE_FONT('continuous');
#414=COLOUR_RGB('',0.800000011920929,0.800000011920929,0.800000011920929);
#415=AXIS2_PLACEMENT_3D('',#562,#563,#564);
#416=DRAUGHTING_PRE_DEFINED_CURVE_FONT('continuous');
#417=COLOUR_RGB('',0.800000011920929,0.800000011920929,0.800000011920929);
#418=CARTESIAN_POINT('',(1.00000008274037E-010,11.7,0.0));
#419=VECTOR('',#565,1.0);
#420=PRE_DEFINED_MARKER('');
#421=COLOUR_RGB('',0.800000011920929,0.800000011920929,0.800000011920929);
#422=PRE_DEFINED_MARKER('');
#423=COLOUR_RGB('',0.800000011920929,0.800000011920929,0.800000011920929);
#424=PRE_DEFINED_MARKER('');
#425=COLOUR_RGB('',0.800000011920929,0.800000011920929,0.800000011920929);
#426=SURFACE_SIDE_STYLE('',(#566));
#427=EDGE_LOOP('',(#567,#568,#569,#570));
#428=AXIS2_PLACEMENT_3D('',#571,#572,#573);
#429=DRAUGHTING_PRE_DEFINED_CURVE_FONT('continuous');
#430=COLOUR_RGB('',0.800000011920929,0.800000011920929,0.800000011920929);
#431=CARTESIAN_POINT('',(11.7,12.7,0.0));
#432=VECTOR('',#574,1.0);
#433=DRAUGHTING_PRE_DEFINED_CURVE_FONT('continuous');
#434=COLOUR_RGB('',0.800000011920929,0.800000011920929,0.800000011920929);
#435=AXIS2_PLACEMENT_3D('',#575,#576,#577);
#436=PRE_DEFINED_MARKER('');
#437=COLOUR_RGB('',0.800000011920929,0.800000011920929,0.800000011920929);
#438=DRAUGHTING_PRE_DEFINED_CURVE_FONT('continuous');
#439=COLOUR_RGB('',0.800000011920929,0.800000011920929,0.800000011920929);
#440=CARTESIAN_POINT('',(1.0,0.0,0.0));
#441=VECTOR('',#578,1.0);
#442=SURFACE_SIDE_STYLE('',(#579));
#443=EDGE_LOOP('',(#580,#581,#582,#583));
#444=AXIS2_PLACEMENT_3D('',#584,#585,#586);
#445=DRAUGHTING_PRE_DEFINED_CURVE_FONT('continuous');
#446=COLOUR_RGB('',0.800000011920929,0.800000011920929,0.800000011920929);
#447=CARTESIAN_POINT('',(12.6999999999,1.0,0.0));
#448=VECTOR('',#587,1.0);
#449=DRAUGHTING_PRE_DEFINED_CURVE_FONT('continuous');
#450=COLOUR_RGB('',0.800000011920929,0.800000011920929,0.800000011920929);
#451=CARTESIAN_POINT('',(11.9460900640552,1.0,-4.76));
#452=VECTOR('',#588,1.0);
#453=DRAUGHTING_PRE_DEFINED_CURVE_FONT('continuous');
#454=COLOUR_RGB('',0.800000011920929,0.800000011920929,0.800000011920929);
#455=CARTESIAN_POINT('',(12.7,11.7,0.0));
#456=VECTOR('',#589,1.0);
#457=DRAUGHTING_PRE_DEFINED_CURVE_FONT('continuous');
#458=COLOUR_RGB('',0.800000011920929,0.800000011920929,0.800000011920929);
#459=CARTESIAN_POINT('',(0.0,1.0,0.0));
#460=VECTOR('',#590,1.0);
#462=CARTESIAN_POINT('',(11.6999999999,11.6999999999,0.0));
#463=DIRECTION('',(0.0,-0.0,1.0));
#464=DIRECTION('',(1.0,9.99982319171979E-011,0.0));
#465=DIRECTION('',(0.0,1.0,0.0));
#466=SURFACE_STYLE_FILL_AREA(#591);
#467=ORIENTED_EDGE('',*,*,#171,.T.);
#468=ORIENTED_EDGE('',*,*,#173,.F.);
#469=ORIENTED_EDGE('',*,*,#81,.F.);
#470=ORIENTED_EDGE('',*,*,#169,.T.);
#471=CARTESIAN_POINT('',(12.6999999999,1.0,0.0));
#472=DIRECTION('',(0.987688340598344,-0.0,-0.156434465019989));
#473=DIRECTION('',(-0.0,-1.0,0.0));
#474=SURFACE_STYLE_FILL_AREA(#592);
#475=ORIENTED_EDGE('',*,*,#99,.T.);
#476=ORIENTED_EDGE('',*,*,#91,.F.);
#477=ORIENTED_EDGE('',*,*,#113,.F.);
#478=ORIENTED_EDGE('',*,*,#165,.T.);
#479=CARTESIAN_POINT('',(1.0,0.0,0.0));
#480=DIRECTION('',(-0.0,-0.987688340595138,-0.156434465040231));
#481=DIRECTION('',(-1.0,0.0,0.0));
#482=SURFACE_STYLE_FILL_AREA(#593);
#483=ORIENTED_EDGE('',*,*,#141,.T.);
#484=ORIENTED_EDGE('',*,*,#175,.F.);
#485=ORIENTED_EDGE('',*,*,#93,.F.);
#486=ORIENTED_EDGE('',*,*,#149,.T.);
#487=CARTESIAN_POINT('',(1.00000008274037E-010,11.7,0.0));
#488=DIRECTION('',(-0.987688340598344,0.0,-0.156434465019989));
#489=DIRECTION('',(0.0,1.0,0.0));
#490=SURFACE_STYLE_FILL_AREA(#594);
#491=ORIENTED_EDGE('',*,*,#107,.T.);
#492=ORIENTED_EDGE('',*,*,#165,.F.);
#493=ORIENTED_EDGE('',*,*,#109,.F.);
#494=ORIENTED_EDGE('',*,*,#175,.T.);
#495=CARTESIAN_POINT('',(1.0000000001,1.0000000001,0.0));
#496=DIRECTION('',(0.0,-0.0,1.0));
#497=DIRECTION('',(-1.0,-9.99991200956174E-011,0.0));
#498=DIRECTION('',(-1.56433151635229E-011,0.156434465060473,-0.987688340591932));
#499=DIRECTION('',(0.0,-1.0,0.0));
#500=DIRECTION('',(1.0,0.0,0.0));
#501=SURFACE_STYLE_FILL_AREA(#595);
#502=ORIENTED_EDGE('',*,*,#105,.T.);
#503=ORIENTED_EDGE('',*,*,#169,.F.);
#504=ORIENTED_EDGE('',*,*,#147,.F.);
#505=ORIENTED_EDGE('',*,*,#91,.T.);
#506=CARTESIAN_POINT('',(11.6999999999,1.0000000001,0.0));
#507=DIRECTION('',(-0.0,-0.0,1.0));
#508=DIRECTION('',(1.00000008274037E-010,-1.0,0.0));
#509=CARTESIAN_POINT('',(11.6999999999,1.0000000001,-4.76));
#510=DIRECTION('',(0.0,0.0,1.0));
#511=DIRECTION('',(1.00000008274037E-010,-1.0,0.0));
#512=CARTESIAN_POINT('',(1.0000000001,1.0000000001,-4.76));
#513=DIRECTION('',(0.0,0.0,1.0));
#514=DIRECTION('',(-1.0,-9.99991200956174E-011,0.0));
#515=CARTESIAN_POINT('',(1.0000000001,1.0000000001,0.0));
#516=DIRECTION('',(0.0,0.0,1.0));
#517=DIRECTION('',(-1.0,-9.99991200956174E-011,0.0));
#518=DIRECTION('',(1.0,0.0,0.0));
#519=SURFACE_STYLE_FILL_AREA(#596);
#520=SURFACE_STYLE_FILL_AREA(#597);
#521=ORIENTED_EDGE('',*,*,#113,.T.);
#522=ORIENTED_EDGE('',*,*,#147,.T.);
#523=ORIENTED_EDGE('',*,*,#81,.T.);
#524=ORIENTED_EDGE('',*,*,#75,.T.);
#525=ORIENTED_EDGE('',*,*,#159,.T.);
#526=ORIENTED_EDGE('',*,*,#161,.T.);
#527=ORIENTED_EDGE('',*,*,#93,.T.);
#528=ORIENTED_EDGE('',*,*,#109,.T.);
#529=CARTESIAN_POINT('',(6.35,6.35,0.0));
#530=DIRECTION('',(0.0,0.0,1.0));
#531=DIRECTION('',(1.0,0.0,0.0));
#532=SURFACE_STYLE_FILL_AREA(#598);
#533=ORIENTED_EDGE('',*,*,#139,.T.);
#534=ORIENTED_EDGE('',*,*,#149,.F.);
#535=ORIENTED_EDGE('',*,*,#161,.F.);
#536=ORIENTED_EDGE('',*,*,#137,.T.);
#537=CARTESIAN_POINT('',(1.0000000001,11.6999999999,0.0));
#538=DIRECTION('',(-0.0,-0.0,1.0));
#539=DIRECTION('',(-9.99983429395003E-011,1.0,0.0));
#540=CARTESIAN_POINT('',(11.6999999999,11.6999999999,-4.76));
#541=DIRECTION('',(0.0,-0.0,1.0));
#542=DIRECTION('',(1.0,9.99982319171979E-011,0.0));
#543=SURFACE_STYLE_FILL_AREA(#599);
#544=ORIENTED_EDGE('',*,*,#105,.F.);
#545=ORIENTED_EDGE('',*,*,#99,.F.);
#546=ORIENTED_EDGE('',*,*,#107,.F.);
#547=ORIENTED_EDGE('',*,*,#141,.F.);
#548=ORIENTED_EDGE('',*,*,#139,.F.);
#549=ORIENTED_EDGE('',*,*,#135,.F.);
#550=ORIENTED_EDGE('',*,*,#125,.F.);
#551=ORIENTED_EDGE('',*,*,#171,.F.);
#552=CARTESIAN_POINT('',(6.35,6.35,-4.76));
#553=DIRECTION('',(0.0,0.0,1.0));
#554=DIRECTION('',(1.0,0.0,0.0));
#555=DIRECTION('',(-1.0,0.0,0.0));
#556=DIRECTION('',(1.5643176942388E-011,-0.156434465060473,-0.987688340591932));
#557=CARTESIAN_POINT('',(1.0000000001,11.6999999999,-4.76));
#558=DIRECTION('',(0.0,0.0,1.0));
#559=DIRECTION('',(-9.99983429395003E-011,1.0,0.0));
#560=DIRECTION('',(0.0,-1.0,0.0));
#561=DIRECTION('',(0.0,-0.156434465019989,-0.987688340598344));
#562=CARTESIAN_POINT('',(11.6999999999,1.0000000001,0.0));
#563=DIRECTION('',(0.0,0.0,1.0));
#564=DIRECTION('',(1.00000008274037E-010,-1.0,0.0));
#565=DIRECTION('',(0.156434465019989,0.0,-0.987688340598344));
#566=SURFACE_STYLE_FILL_AREA(#600);
#567=ORIENTED_EDGE('',*,*,#125,.T.);
#568=ORIENTED_EDGE('',*,*,#143,.F.);
#569=ORIENTED_EDGE('',*,*,#75,.F.);
#570=ORIENTED_EDGE('',*,*,#173,.T.);
#571=CARTESIAN_POINT('',(11.6999999999,11.6999999999,0.0));
#572=DIRECTION('',(-0.0,-0.0,1.0));
#573=DIRECTION('',(1.0,9.99982319171979E-011,0.0));
#574=DIRECTION('',(-1.0,0.0,0.0));
#575=CARTESIAN_POINT('',(1.0000000001,11.6999999999,0.0));
#576=DIRECTION('',(0.0,0.0,1.0));
#577=DIRECTION('',(-9.99983429395003E-011,1.0,0.0));
#578=DIRECTION('',(0.0,0.156434465040231,-0.987688340595138));
#579=SURFACE_STYLE_FILL_AREA(#601);
#580=ORIENTED_EDGE('',*,*,#135,.T.);
#581=ORIENTED_EDGE('',*,*,#137,.F.);
#582=ORIENTED_EDGE('',*,*,#159,.F.);
#583=ORIENTED_EDGE('',*,*,#143,.T.);
#584=CARTESIAN_POINT('',(11.7,12.6999999999,0.0));
#585=DIRECTION('',(0.0,0.987688340598344,-0.156434465019989));
#586=DIRECTION('',(1.0,-0.0,0.0));
#587=DIRECTION('',(-0.156434465019989,0.0,-0.987688340598344));
#588=DIRECTION('',(0.0,1.0,0.0));
#589=DIRECTION('',(-0.156434465060473,-1.56433151635229E-011,-0.987688340591932));
#590=DIRECTION('',(0.156434465060473,1.56434994583694E-011,-0.987688340591932));
#591=FILL_AREA_STYLE('',(#602));
#592=FILL_AREA_STYLE('',(#603));
#593=FILL_AREA_STYLE('',(#604));
#594=FILL_AREA_STYLE('',(#605));
#595=FILL_AREA_STYLE('',(#606));
#596=FILL_AREA_STYLE('',(#607));
#597=FILL_AREA_STYLE('',(#608));
#598=FILL_AREA_STYLE('',(#609));
#599=FILL_AREA_STYLE('',(#610));
#600=FILL_AREA_STYLE('',(#611));
#601=FILL_AREA_STYLE('',(#612));
#602=FILL_AREA_STYLE_COLOUR('',#613);
#603=FILL_AREA_STYLE_COLOUR('',#614);
#604=FILL_AREA_STYLE_COLOUR('',#615);
#605=FILL_AREA_STYLE_COLOUR('',#616);
#606=FILL_AREA_STYLE_COLOUR('',#617);
#607=FILL_AREA_STYLE_COLOUR('',#618);
#608=FILL_AREA_STYLE_COLOUR('',#619);
#609=FILL_AREA_STYLE_COLOUR('',#620);
#610=FILL_AREA_STYLE_COLOUR('',#621);
#611=FILL_AREA_STYLE_COLOUR('',#622);
#612=FILL_AREA_STYLE_COLOUR('',#623);
#613=COLOUR_RGB('',0.800000011920929,0.800000011920929,0.800000011920929);
#614=COLOUR_RGB('',0.800000011920929,0.800000011920929,0.800000011920929);
#615=COLOUR_RGB('',0.800000011920929,0.800000011920929,0.800000011920929);
#616=COLOUR_RGB('',0.800000011920929,0.800000011920929,0.800000011920929);
#617=COLOUR_RGB('',0.800000011920929,0.800000011920929,0.800000011920929);
#618=COLOUR_RGB('',0.800000011920929,0.800000011920929,0.800000011920929);
#619=COLOUR_RGB('',0.800000011920929,0.800000011920929,0.800000011920929);
#620=COLOUR_RGB('',0.800000011920929,0.800000011920929,0.800000011920929);
#621=COLOUR_RGB('',0.800000011920929,0.800000011920929,0.800000011920929);
#622=COLOUR_RGB('',0.800000011920929,0.800000011920929,0.800000011920929);
#623=COLOUR_RGB('',0.800000011920929,0.800000011920929,0.800000011920929);
#624=AXIS2_PLACEMENT_3D('PCS',#625,#626,#627);
#625=CARTESIAN_POINT('',(0.0,0.0,0.0));
#626=DIRECTION('',(0.0,0.0,1.0));
#627=DIRECTION('',(1.0,0.0,0.0));
#628=AXIS2_PLACEMENT_3D('MCS',#629,#630,#631);
#629=CARTESIAN_POINT('',(6.35,6.35,0.0));
#630=DIRECTION('',(0.0,0.0,1.0));
#631=DIRECTION('',(1.0,0.0,0.0));
#632=CONSTRUCTIVE_GEOMETRY_REPRESENTATION_RELATIONSHIP('coordinate systems',$,#65,#633);
#633=CONSTRUCTIVE_GEOMETRY_REPRESENTATION('coordinate systems',(#624,#628),#6);
ENDSEC;
END-ISO-10303-21;
