ISO-10303-21;
HEADER;
FILE_DESCRIPTION(('no description'),'unknown implementation level');
FILE_NAME('solidT_CU_mrDhCk_OtaCeo2lwqXu4WE_1.STP','  ',('CIMSOURCE GmbH'),('CADClick - KiM GmbH - www.kimweb.de'),'unknown preprocess','ACIS','unknown authorization');
FILE_SCHEMA(('automotive_design'));
ENDSEC;
DATA;
#1=MECHANICAL_DESIGN_GEOMETRIC_PRESENTATION_REPRESENTATION(' ',(#10,#11,#12,#13,#14,#15,#16,#17,#18,#19,#20,#21,#22,#23,#24),#6);
#2=PRODUCT_DEFINITION_CONTEXT('',#25,'design');
#3=APPLICATION_PROTOCOL_DEFINITION('INTERNATIONAL STANDARD','automotive_design',1994,#25);
#4=PRODUCT_CATEGORY_RELATIONSHIP('NONE','NONE',#26,#27);
#5=SHAPE_DEFINITION_REPRESENTATION(#28,#29);
#6= (GEOMETRIC_REPRESENTATION_CONTEXT(3)GLOBAL_UNCERTAINTY_ASSIGNED_CONTEXT((#32))GLOBAL_UNIT_ASSIGNED_CONTEXT((#34,#35,#36))REPRESENTATION_CONTEXT('NONE','WORKSPACE'));
#10=STYLED_ITEM('',(#38),#39);
#11=STYLED_ITEM('',(#40),#41);
#12=STYLED_ITEM('',(#42),#43);
#13=STYLED_ITEM('',(#44),#45);
#14=STYLED_ITEM('',(#46),#47);
#15=STYLED_ITEM('',(#48),#49);
#16=STYLED_ITEM('',(#50),#51);
#17=STYLED_ITEM('',(#52),#53);
#18=STYLED_ITEM('',(#54),#55);
#19=STYLED_ITEM('',(#56),#57);
#20=STYLED_ITEM('',(#58),#59);
#21=STYLED_ITEM('',(#60),#61);
#22=STYLED_ITEM('',(#62),#63);
#23=STYLED_ITEM('',(#64),#65);
#24=STYLED_ITEM('',(#66),#67);
#25=APPLICATION_CONTEXT(' ');
#26=PRODUCT_CATEGORY('part','NONE');
#27=PRODUCT_RELATED_PRODUCT_CATEGORY('detail',' ',(#68));
#28=PRODUCT_DEFINITION_SHAPE('NONE','NONE',#69);
#29=ADVANCED_BREP_SHAPE_REPRESENTATION('1',(#59,#70),#6);
#32=UNCERTAINTY_MEASURE_WITH_UNIT(LENGTH_MEASURE(1.0E-006),#34,'','');
#34= (CONVERSION_BASED_UNIT('MILLIMETRE',#73)LENGTH_UNIT()NAMED_UNIT(#76));
#35= (NAMED_UNIT(#78)PLANE_ANGLE_UNIT()SI_UNIT($,.RADIAN.));
#36= (NAMED_UNIT(#78)SOLID_ANGLE_UNIT()SI_UNIT($,.STERADIAN.));
#38=PRESENTATION_STYLE_ASSIGNMENT((#84));
#39=EDGE_CURVE('',#45,#41,#85,.T.);
#40=PRESENTATION_STYLE_ASSIGNMENT((#86));
#41=VERTEX_POINT('',#87);
#42=PRESENTATION_STYLE_ASSIGNMENT((#88));
#43=ADVANCED_FACE('',(#89),#90,.T.);
#44=PRESENTATION_STYLE_ASSIGNMENT((#91));
#45=VERTEX_POINT('',#92);
#46=PRESENTATION_STYLE_ASSIGNMENT((#93));
#47=VERTEX_POINT('',#94);
#48=PRESENTATION_STYLE_ASSIGNMENT((#95));
#49=EDGE_CURVE('',#61,#41,#96,.T.);
#50=PRESENTATION_STYLE_ASSIGNMENT((#97));
#51=ADVANCED_FACE('',(#98),#99,.T.);
#52=PRESENTATION_STYLE_ASSIGNMENT((#100));
#53=EDGE_CURVE('',#61,#47,#101,.T.);
#54=PRESENTATION_STYLE_ASSIGNMENT((#102));
#55=ADVANCED_FACE('',(#103),#104,.T.);
#56=PRESENTATION_STYLE_ASSIGNMENT((#105));
#57=EDGE_CURVE('',#41,#61,#106,.T.);
#58=PRESENTATION_STYLE_ASSIGNMENT((#107));
#59=MANIFOLD_SOLID_BREP('1',#108);
#60=PRESENTATION_STYLE_ASSIGNMENT((#109));
#61=VERTEX_POINT('',#110);
#62=PRESENTATION_STYLE_ASSIGNMENT((#111));
#63=ADVANCED_FACE('',(#112),#113,.F.);
#64=PRESENTATION_STYLE_ASSIGNMENT((#114));
#65=EDGE_CURVE('',#47,#45,#115,.T.);
#66=PRESENTATION_STYLE_ASSIGNMENT((#116));
#67=EDGE_CURVE('',#45,#47,#117,.T.);
#68=PRODUCT('1','1','PART-1-DESC',(#118));
#69=PRODUCT_DEFINITION('NONE','NONE',#119,#2);
#70=AXIS2_PLACEMENT_3D('',#120,#121,#122);
#73=LENGTH_MEASURE_WITH_UNIT(LENGTH_MEASURE(1.0),#123);
#76=DIMENSIONAL_EXPONENTS(1.0,0.0,0.0,0.0,0.0,0.0,0.0);
#78=DIMENSIONAL_EXPONENTS(0.0,0.0,0.0,0.0,0.0,0.0,0.0);
#84=CURVE_STYLE('',#124,POSITIVE_LENGTH_MEASURE(1.0E-006),#125);
#85=LINE('',#126,#127);
#86=POINT_STYLE(' ',#128,POSITIVE_LENGTH_MEASURE(1.0E-006),#129);
#87=CARTESIAN_POINT('',(9.22831017272326,5.0,-3.97));
#88=SURFACE_STYLE_USAGE(.BOTH.,#130);
#89=FACE_OUTER_BOUND('',#131,.T.);
#90=PLANE('',#132);
#91=POINT_STYLE(' ',#133,POSITIVE_LENGTH_MEASURE(1.0E-006),#134);
#92=CARTESIAN_POINT('',(10.0,5.0,0.0));
#93=POINT_STYLE(' ',#135,POSITIVE_LENGTH_MEASURE(1.0E-006),#136);
#94=CARTESIAN_POINT('',(0.0,5.0,0.0));
#95=CURVE_STYLE('',#137,POSITIVE_LENGTH_MEASURE(1.0E-006),#138);
#96=CIRCLE('',#139,4.22831017272326);
#97=SURFACE_STYLE_USAGE(.BOTH.,#140);
#98=FACE_OUTER_BOUND('',#141,.T.);
#99=CONICAL_SURFACE('',#142,5.0,0.191986217719376);
#100=CURVE_STYLE('',#143,POSITIVE_LENGTH_MEASURE(1.0E-006),#144);
#101=LINE('',#145,#146);
#102=SURFACE_STYLE_USAGE(.BOTH.,#147);
#103=FACE_OUTER_BOUND('',#148,.T.);
#104=CONICAL_SURFACE('',#149,5.0,0.191986217719376);
#105=CURVE_STYLE('',#150,POSITIVE_LENGTH_MEASURE(1.0E-006),#151);
#106=CIRCLE('',#152,4.22831017272326);
#107=SURFACE_STYLE_USAGE(.BOTH.,#153);
#108=CLOSED_SHELL('',(#51,#55,#63,#43));
#109=POINT_STYLE(' ',#154,POSITIVE_LENGTH_MEASURE(1.0E-006),#155);
#110=CARTESIAN_POINT('',(0.771689827276743,5.0,-3.97));
#111=SURFACE_STYLE_USAGE(.BOTH.,#156);
#112=FACE_OUTER_BOUND('',#157,.T.);
#113=PLANE('',#158);
#114=CURVE_STYLE('',#159,POSITIVE_LENGTH_MEASURE(1.0E-006),#160);
#115=CIRCLE('',#161,5.0);
#116=CURVE_STYLE('',#162,POSITIVE_LENGTH_MEASURE(1.0E-006),#163);
#117=CIRCLE('',#164,5.0);
#118=PRODUCT_CONTEXT('',#25,'mechanical');
#119=PRODUCT_DEFINITION_FORMATION_WITH_SPECIFIED_SOURCE(' ','NONE',#68,.NOT_KNOWN.);
#120=CARTESIAN_POINT('',(0.0,0.0,0.0));
#121=DIRECTION('',(0.0,0.0,1.0));
#122=DIRECTION('',(1.0,0.0,0.0));
#123= (NAMED_UNIT(#76)LENGTH_UNIT()SI_UNIT(.MILLI.,.METRE.));
#124=DRAUGHTING_PRE_DEFINED_CURVE_FONT('continuous');
#125=COLOUR_RGB('',0.800000011920929,0.800000011920929,0.800000011920929);
#126=CARTESIAN_POINT('',(10.0,5.0,0.0));
#127=VECTOR('',#166,1.0);
#128=PRE_DEFINED_MARKER('');
#129=COLOUR_RGB('',0.800000011920929,0.800000011920929,0.800000011920929);
#130=SURFACE_SIDE_STYLE('',(#167));
#131=EDGE_LOOP('',(#168,#169));
#132=AXIS2_PLACEMENT_3D('',#170,#171,#172);
#133=PRE_DEFINED_MARKER('');
#134=COLOUR_RGB('',0.800000011920929,0.800000011920929,0.800000011920929);
#135=PRE_DEFINED_MARKER('');
#136=COLOUR_RGB('',0.800000011920929,0.800000011920929,0.800000011920929);
#137=DRAUGHTING_PRE_DEFINED_CURVE_FONT('continuous');
#138=COLOUR_RGB('',0.800000011920929,0.800000011920929,0.800000011920929);
#139=AXIS2_PLACEMENT_3D('',#173,#174,#175);
#140=SURFACE_SIDE_STYLE('',(#176));
#141=EDGE_LOOP('',(#177,#178,#179,#180));
#142=AXIS2_PLACEMENT_3D('',#181,#182,#183);
#143=DRAUGHTING_PRE_DEFINED_CURVE_FONT('continuous');
#144=COLOUR_RGB('',0.800000011920929,0.800000011920929,0.800000011920929);
#145=CARTESIAN_POINT('',(8.88178419700125E-016,5.0,0.0));
#146=VECTOR('',#184,1.0);
#147=SURFACE_SIDE_STYLE('',(#185));
#148=EDGE_LOOP('',(#186,#187,#188,#189));
#149=AXIS2_PLACEMENT_3D('',#190,#191,#192);
#150=DRAUGHTING_PRE_DEFINED_CURVE_FONT('continuous');
#151=COLOUR_RGB('',0.800000011920929,0.800000011920929,0.800000011920929);
#152=AXIS2_PLACEMENT_3D('',#193,#194,#195);
#153=SURFACE_SIDE_STYLE('',(#196));
#154=PRE_DEFINED_MARKER('');
#155=COLOUR_RGB('',0.800000011920929,0.800000011920929,0.800000011920929);
#156=SURFACE_SIDE_STYLE('',(#197));
#157=EDGE_LOOP('',(#198,#199));
#158=AXIS2_PLACEMENT_3D('',#200,#201,#202);
#159=DRAUGHTING_PRE_DEFINED_CURVE_FONT('continuous');
#160=COLOUR_RGB('',0.800000011920929,0.800000011920929,0.800000011920929);
#161=AXIS2_PLACEMENT_3D('',#203,#204,#205);
#162=DRAUGHTING_PRE_DEFINED_CURVE_FONT('continuous');
#163=COLOUR_RGB('',0.800000011920929,0.800000011920929,0.800000011920929);
#164=AXIS2_PLACEMENT_3D('',#206,#207,#208);
#166=DIRECTION('',(-0.190808995376545,-3.38944863956216E-017,-0.981627183447664));
#167=SURFACE_STYLE_FILL_AREA(#209);
#168=ORIENTED_EDGE('',*,*,#65,.T.);
#169=ORIENTED_EDGE('',*,*,#67,.T.);
#170=CARTESIAN_POINT('',(5.0,5.0,0.0));
#171=DIRECTION('',(0.0,0.0,1.0));
#172=DIRECTION('',(1.0,0.0,0.0));
#173=CARTESIAN_POINT('',(5.0,5.0,-3.97));
#174=DIRECTION('',(0.0,0.0,1.0));
#175=DIRECTION('',(-1.0,5.32907051820075E-016,0.0));
#176=SURFACE_STYLE_FILL_AREA(#210);
#177=ORIENTED_EDGE('',*,*,#39,.F.);
#178=ORIENTED_EDGE('',*,*,#65,.F.);
#179=ORIENTED_EDGE('',*,*,#53,.F.);
#180=ORIENTED_EDGE('',*,*,#49,.T.);
#181=CARTESIAN_POINT('',(5.0,5.0,0.0));
#182=DIRECTION('',(-0.0,-0.0,1.0));
#183=DIRECTION('',(1.0,0.0,0.0));
#184=DIRECTION('',(-0.190808995376545,-3.38944863956216E-017,0.981627183447664));
#185=SURFACE_STYLE_FILL_AREA(#211);
#186=ORIENTED_EDGE('',*,*,#39,.T.);
#187=ORIENTED_EDGE('',*,*,#57,.T.);
#188=ORIENTED_EDGE('',*,*,#53,.T.);
#189=ORIENTED_EDGE('',*,*,#67,.F.);
#190=CARTESIAN_POINT('',(5.0,5.0,0.0));
#191=DIRECTION('',(-0.0,-0.0,1.0));
#192=DIRECTION('',(1.0,0.0,0.0));
#193=CARTESIAN_POINT('',(5.0,5.0,-3.97));
#194=DIRECTION('',(0.0,0.0,1.0));
#195=DIRECTION('',(-1.0,5.32907051820075E-016,0.0));
#196=SURFACE_STYLE_FILL_AREA(#212);
#197=SURFACE_STYLE_FILL_AREA(#213);
#198=ORIENTED_EDGE('',*,*,#57,.F.);
#199=ORIENTED_EDGE('',*,*,#49,.F.);
#200=CARTESIAN_POINT('',(5.0,5.0,-3.97));
#201=DIRECTION('',(0.0,0.0,1.0));
#202=DIRECTION('',(1.0,0.0,0.0));
#203=CARTESIAN_POINT('',(5.0,5.0,0.0));
#204=DIRECTION('',(0.0,0.0,1.0));
#205=DIRECTION('',(1.0,0.0,0.0));
#206=CARTESIAN_POINT('',(5.0,5.0,0.0));
#207=DIRECTION('',(0.0,0.0,1.0));
#208=DIRECTION('',(1.0,0.0,0.0));
#209=FILL_AREA_STYLE('',(#214));
#210=FILL_AREA_STYLE('',(#215));
#211=FILL_AREA_STYLE('',(#216));
#212=FILL_AREA_STYLE('',(#217));
#213=FILL_AREA_STYLE('',(#218));
#214=FILL_AREA_STYLE_COLOUR('',#219);
#215=FILL_AREA_STYLE_COLOUR('',#220);
#216=FILL_AREA_STYLE_COLOUR('',#221);
#217=FILL_AREA_STYLE_COLOUR('',#222);
#218=FILL_AREA_STYLE_COLOUR('',#223);
#219=COLOUR_RGB('',0.800000011920929,0.800000011920929,0.800000011920929);
#220=COLOUR_RGB('',0.800000011920929,0.800000011920929,0.800000011920929);
#221=COLOUR_RGB('',0.800000011920929,0.800000011920929,0.800000011920929);
#222=COLOUR_RGB('',0.800000011920929,0.800000011920929,0.800000011920929);
#223=COLOUR_RGB('',0.800000011920929,0.800000011920929,0.800000011920929);
#224=AXIS2_PLACEMENT_3D('PCS',#225,#226,#227);
#225=CARTESIAN_POINT('',(0.0,0.0,0.0));
#226=DIRECTION('',(0.0,0.0,1.0));
#227=DIRECTION('',(1.0,0.0,0.0));
#228=AXIS2_PLACEMENT_3D('MCS',#229,#230,#231);
#229=CARTESIAN_POINT('',(5.0,5.0,0.0));
#230=DIRECTION('',(0.0,0.0,1.0));
#231=DIRECTION('',(1.0,0.0,0.0));
#232=CONSTRUCTIVE_GEOMETRY_REPRESENTATION_RELATIONSHIP('coordinate systems',$,#29,#233);
#233=CONSTRUCTIVE_GEOMETRY_REPRESENTATION('coordinate systems',(#224,#228),#6);
ENDSEC;
END-ISO-10303-21;
