ISO-10303-21;
HEADER;
FILE_DESCRIPTION(('no description'),'unknown implementation level');
FILE_NAME('solid35Jn3M8S2U_tghI9rnEe3iXRPkI_1.STP','  ',('CIMSOURCE GmbH'),('CADClick - KiM GmbH - www.kimweb.de'),'unknown preprocess','ACIS','unknown authorization');
FILE_SCHEMA(('automotive_design'));
ENDSEC;
DATA;
#1=MECHANICAL_DESIGN_GEOMETRIC_PRESENTATION_REPRESENTATION(' ',(#10,#11,#12,#13,#14,#15,#16,#17,#18,#19,#20,#21,#22,#23,#24),#6);
#2=PRODUCT_DEFINITION_CONTEXT('',#25,'design');
#3=APPLICATION_PROTOCOL_DEFINITION('INTERNATIONAL STANDARD','automotive_design',1994,#25);
#4=PRODUCT_CATEGORY_RELATIONSHIP('NONE','NONE',#26,#27);
#5=SHAPE_DEFINITION_REPRESENTATION(#28,#29);
#6= (GEOMETRIC_REPRESENTATION_CONTEXT(3)GLOBAL_UNCERTAINTY_ASSIGNED_CONTEXT((#32))GLOBAL_UNIT_ASSIGNED_CONTEXT((#34,#35,#36))REPRESENTATION_CONTEXT('NONE','WORKSPACE'));
#10=STYLED_ITEM('',(#38),#39);
#11=STYLED_ITEM('',(#40),#41);
#12=STYLED_ITEM('',(#42),#43);
#13=STYLED_ITEM('',(#44),#45);
#14=STYLED_ITEM('',(#46),#47);
#15=STYLED_ITEM('',(#48),#49);
#16=STYLED_ITEM('',(#50),#51);
#17=STYLED_ITEM('',(#52),#53);
#18=STYLED_ITEM('',(#54),#55);
#19=STYLED_ITEM('',(#56),#57);
#20=STYLED_ITEM('',(#58),#59);
#21=STYLED_ITEM('',(#60),#61);
#22=STYLED_ITEM('',(#62),#63);
#23=STYLED_ITEM('',(#64),#65);
#24=STYLED_ITEM('',(#66),#67);
#25=APPLICATION_CONTEXT(' ');
#26=PRODUCT_CATEGORY('part','NONE');
#27=PRODUCT_RELATED_PRODUCT_CATEGORY('detail',' ',(#68));
#28=PRODUCT_DEFINITION_SHAPE('NONE','NONE',#69);
#29=ADVANCED_BREP_SHAPE_REPRESENTATION('1',(#53,#70),#6);
#32=UNCERTAINTY_MEASURE_WITH_UNIT(LENGTH_MEASURE(1.0E-006),#34,'','');
#34= (CONVERSION_BASED_UNIT('MILLIMETRE',#73)LENGTH_UNIT()NAMED_UNIT(#76));
#35= (NAMED_UNIT(#78)PLANE_ANGLE_UNIT()SI_UNIT($,.RADIAN.));
#36= (NAMED_UNIT(#78)SOLID_ANGLE_UNIT()SI_UNIT($,.STERADIAN.));
#38=PRESENTATION_STYLE_ASSIGNMENT((#84));
#39=EDGE_CURVE('',#63,#43,#85,.T.);
#40=PRESENTATION_STYLE_ASSIGNMENT((#86));
#41=EDGE_CURVE('',#43,#63,#87,.T.);
#42=PRESENTATION_STYLE_ASSIGNMENT((#88));
#43=VERTEX_POINT('',#89);
#44=PRESENTATION_STYLE_ASSIGNMENT((#90));
#45=EDGE_CURVE('',#43,#47,#91,.T.);
#46=PRESENTATION_STYLE_ASSIGNMENT((#92));
#47=VERTEX_POINT('',#93);
#48=PRESENTATION_STYLE_ASSIGNMENT((#94));
#49=ADVANCED_FACE('',(#95),#96,.F.);
#50=PRESENTATION_STYLE_ASSIGNMENT((#97));
#51=EDGE_CURVE('',#59,#63,#98,.T.);
#52=PRESENTATION_STYLE_ASSIGNMENT((#99));
#53=MANIFOLD_SOLID_BREP('1',#100);
#54=PRESENTATION_STYLE_ASSIGNMENT((#101));
#55=EDGE_CURVE('',#59,#47,#102,.T.);
#56=PRESENTATION_STYLE_ASSIGNMENT((#103));
#57=ADVANCED_FACE('',(#104),#105,.T.);
#58=PRESENTATION_STYLE_ASSIGNMENT((#106));
#59=VERTEX_POINT('',#107);
#60=PRESENTATION_STYLE_ASSIGNMENT((#108));
#61=ADVANCED_FACE('',(#109),#110,.T.);
#62=PRESENTATION_STYLE_ASSIGNMENT((#111));
#63=VERTEX_POINT('',#112);
#64=PRESENTATION_STYLE_ASSIGNMENT((#113));
#65=ADVANCED_FACE('',(#114),#115,.T.);
#66=PRESENTATION_STYLE_ASSIGNMENT((#116));
#67=EDGE_CURVE('',#47,#59,#117,.T.);
#68=PRODUCT('1','1','PART-1-DESC',(#118));
#69=PRODUCT_DEFINITION('NONE','NONE',#119,#2);
#70=AXIS2_PLACEMENT_3D('',#120,#121,#122);
#73=LENGTH_MEASURE_WITH_UNIT(LENGTH_MEASURE(1.0),#123);
#76=DIMENSIONAL_EXPONENTS(1.0,0.0,0.0,0.0,0.0,0.0,0.0);
#78=DIMENSIONAL_EXPONENTS(0.0,0.0,0.0,0.0,0.0,0.0,0.0);
#84=CURVE_STYLE('',#124,POSITIVE_LENGTH_MEASURE(1.0E-006),#125);
#85=CIRCLE('',#126,5.07474972850446);
#86=CURVE_STYLE('',#127,POSITIVE_LENGTH_MEASURE(1.0E-006),#128);
#87=CIRCLE('',#129,5.07474972850446);
#88=POINT_STYLE(' ',#130,POSITIVE_LENGTH_MEASURE(1.0E-006),#131);
#89=CARTESIAN_POINT('',(0.92525027149554,6.0,-4.76));
#90=CURVE_STYLE('',#132,POSITIVE_LENGTH_MEASURE(1.0E-006),#133);
#91=LINE('',#134,#135);
#92=POINT_STYLE(' ',#136,POSITIVE_LENGTH_MEASURE(1.0E-006),#137);
#93=CARTESIAN_POINT('',(3.5527136788005E-015,6.00000000000001,0.0));
#94=SURFACE_STYLE_USAGE(.BOTH.,#138);
#95=FACE_OUTER_BOUND('',#139,.T.);
#96=PLANE('',#140);
#97=CURVE_STYLE('',#141,POSITIVE_LENGTH_MEASURE(1.0E-006),#142);
#98=LINE('',#143,#144);
#99=SURFACE_STYLE_USAGE(.BOTH.,#145);
#100=CLOSED_SHELL('',(#61,#57,#49,#65));
#101=CURVE_STYLE('',#146,POSITIVE_LENGTH_MEASURE(1.0E-006),#147);
#102=CIRCLE('',#148,6.0);
#103=SURFACE_STYLE_USAGE(.BOTH.,#149);
#104=FACE_OUTER_BOUND('',#150,.T.);
#105=CONICAL_SURFACE('',#151,6.0,0.191986217719376);
#106=POINT_STYLE(' ',#152,POSITIVE_LENGTH_MEASURE(1.0E-006),#153);
#107=CARTESIAN_POINT('',(12.0,6.0,0.0));
#108=SURFACE_STYLE_USAGE(.BOTH.,#154);
#109=FACE_OUTER_BOUND('',#155,.T.);
#110=CONICAL_SURFACE('',#156,6.0,0.191986217719376);
#111=POINT_STYLE(' ',#157,POSITIVE_LENGTH_MEASURE(1.0E-006),#158);
#112=CARTESIAN_POINT('',(11.0747497285045,6.0,-4.76));
#113=SURFACE_STYLE_USAGE(.BOTH.,#159);
#114=FACE_OUTER_BOUND('',#160,.T.);
#115=PLANE('',#161);
#116=CURVE_STYLE('',#162,POSITIVE_LENGTH_MEASURE(1.0E-006),#163);
#117=CIRCLE('',#164,6.0);
#118=PRODUCT_CONTEXT('',#25,'mechanical');
#119=PRODUCT_DEFINITION_FORMATION_WITH_SPECIFIED_SOURCE(' ','NONE',#68,.NOT_KNOWN.);
#120=CARTESIAN_POINT('',(0.0,0.0,0.0));
#121=DIRECTION('',(0.0,0.0,1.0));
#122=DIRECTION('',(1.0,0.0,0.0));
#123= (NAMED_UNIT(#76)LENGTH_UNIT()SI_UNIT(.MILLI.,.METRE.));
#124=DRAUGHTING_PRE_DEFINED_CURVE_FONT('continuous');
#125=COLOUR_RGB('',0.800000011920929,0.800000011920929,0.800000011920929);
#126=AXIS2_PLACEMENT_3D('',#166,#167,#168);
#127=DRAUGHTING_PRE_DEFINED_CURVE_FONT('continuous');
#128=COLOUR_RGB('',0.800000011920929,0.800000011920929,0.800000011920929);
#129=AXIS2_PLACEMENT_3D('',#169,#170,#171);
#130=PRE_DEFINED_MARKER('');
#131=COLOUR_RGB('',0.800000011920929,0.800000011920929,0.800000011920929);
#132=DRAUGHTING_PRE_DEFINED_CURVE_FONT('continuous');
#133=COLOUR_RGB('',0.800000011920929,0.800000011920929,0.800000011920929);
#134=CARTESIAN_POINT('',(4.44089209850063E-015,6.0,0.0));
#135=VECTOR('',#172,1.0);
#136=PRE_DEFINED_MARKER('');
#137=COLOUR_RGB('',0.800000011920929,0.800000011920929,0.800000011920929);
#138=SURFACE_SIDE_STYLE('',(#173));
#139=EDGE_LOOP('',(#174,#175));
#140=AXIS2_PLACEMENT_3D('',#176,#177,#178);
#141=DRAUGHTING_PRE_DEFINED_CURVE_FONT('continuous');
#142=COLOUR_RGB('',0.800000011920929,0.800000011920929,0.800000011920929);
#143=CARTESIAN_POINT('',(12.0,6.0,0.0));
#144=VECTOR('',#179,1.0);
#145=SURFACE_SIDE_STYLE('',(#180));
#146=DRAUGHTING_PRE_DEFINED_CURVE_FONT('continuous');
#147=COLOUR_RGB('',0.800000011920929,0.800000011920929,0.800000011920929);
#148=AXIS2_PLACEMENT_3D('',#181,#182,#183);
#149=SURFACE_SIDE_STYLE('',(#184));
#150=EDGE_LOOP('',(#185,#186,#187,#188));
#151=AXIS2_PLACEMENT_3D('',#189,#190,#191);
#152=PRE_DEFINED_MARKER('');
#153=COLOUR_RGB('',0.800000011920929,0.800000011920929,0.800000011920929);
#154=SURFACE_SIDE_STYLE('',(#192));
#155=EDGE_LOOP('',(#193,#194,#195,#196));
#156=AXIS2_PLACEMENT_3D('',#197,#198,#199);
#157=PRE_DEFINED_MARKER('');
#158=COLOUR_RGB('',0.800000011920929,0.800000011920929,0.800000011920929);
#159=SURFACE_SIDE_STYLE('',(#200));
#160=EDGE_LOOP('',(#201,#202));
#161=AXIS2_PLACEMENT_3D('',#203,#204,#205);
#162=DRAUGHTING_PRE_DEFINED_CURVE_FONT('continuous');
#163=COLOUR_RGB('',0.800000011920929,0.800000011920929,0.800000011920929);
#164=AXIS2_PLACEMENT_3D('',#206,#207,#208);
#166=CARTESIAN_POINT('',(6.0,6.0,-4.76));
#167=DIRECTION('',(0.0,0.0,1.0));
#168=DIRECTION('',(-1.0,1.48029736616688E-016,0.0));
#169=CARTESIAN_POINT('',(6.0,6.0,-4.76));
#170=DIRECTION('',(0.0,0.0,1.0));
#171=DIRECTION('',(-1.0,1.48029736616688E-016,0.0));
#172=DIRECTION('',(-0.190808995376545,5.64908106593693E-017,0.981627183447664));
#173=SURFACE_STYLE_FILL_AREA(#209);
#174=ORIENTED_EDGE('',*,*,#39,.F.);
#175=ORIENTED_EDGE('',*,*,#41,.F.);
#176=CARTESIAN_POINT('',(6.0,6.0,-4.76));
#177=DIRECTION('',(0.0,0.0,1.0));
#178=DIRECTION('',(1.0,0.0,0.0));
#179=DIRECTION('',(-0.190808995376545,5.64908106593693E-017,-0.981627183447664));
#180=SURFACE_STYLE_FILL_AREA(#210);
#181=CARTESIAN_POINT('',(6.0,6.0,0.0));
#182=DIRECTION('',(0.0,0.0,1.0));
#183=DIRECTION('',(1.0,-4.44089209850063E-016,0.0));
#184=SURFACE_STYLE_FILL_AREA(#211);
#185=ORIENTED_EDGE('',*,*,#51,.T.);
#186=ORIENTED_EDGE('',*,*,#39,.T.);
#187=ORIENTED_EDGE('',*,*,#45,.T.);
#188=ORIENTED_EDGE('',*,*,#55,.F.);
#189=CARTESIAN_POINT('',(6.0,6.0,0.0));
#190=DIRECTION('',(-0.0,-0.0,1.0));
#191=DIRECTION('',(1.0,-4.44089209850063E-016,0.0));
#192=SURFACE_STYLE_FILL_AREA(#212);
#193=ORIENTED_EDGE('',*,*,#51,.F.);
#194=ORIENTED_EDGE('',*,*,#67,.F.);
#195=ORIENTED_EDGE('',*,*,#45,.F.);
#196=ORIENTED_EDGE('',*,*,#41,.T.);
#197=CARTESIAN_POINT('',(6.0,6.0,0.0));
#198=DIRECTION('',(-0.0,-0.0,1.0));
#199=DIRECTION('',(1.0,-4.44089209850063E-016,0.0));
#200=SURFACE_STYLE_FILL_AREA(#213);
#201=ORIENTED_EDGE('',*,*,#67,.T.);
#202=ORIENTED_EDGE('',*,*,#55,.T.);
#203=CARTESIAN_POINT('',(6.0,6.0,0.0));
#204=DIRECTION('',(0.0,0.0,1.0));
#205=DIRECTION('',(1.0,0.0,0.0));
#206=CARTESIAN_POINT('',(6.0,6.0,0.0));
#207=DIRECTION('',(0.0,0.0,1.0));
#208=DIRECTION('',(1.0,-4.44089209850063E-016,0.0));
#209=FILL_AREA_STYLE('',(#214));
#210=FILL_AREA_STYLE('',(#215));
#211=FILL_AREA_STYLE('',(#216));
#212=FILL_AREA_STYLE('',(#217));
#213=FILL_AREA_STYLE('',(#218));
#214=FILL_AREA_STYLE_COLOUR('',#219);
#215=FILL_AREA_STYLE_COLOUR('',#220);
#216=FILL_AREA_STYLE_COLOUR('',#221);
#217=FILL_AREA_STYLE_COLOUR('',#222);
#218=FILL_AREA_STYLE_COLOUR('',#223);
#219=COLOUR_RGB('',0.800000011920929,0.800000011920929,0.800000011920929);
#220=COLOUR_RGB('',0.800000011920929,0.800000011920929,0.800000011920929);
#221=COLOUR_RGB('',0.800000011920929,0.800000011920929,0.800000011920929);
#222=COLOUR_RGB('',0.800000011920929,0.800000011920929,0.800000011920929);
#223=COLOUR_RGB('',0.800000011920929,0.800000011920929,0.800000011920929);
#224=AXIS2_PLACEMENT_3D('PCS',#225,#226,#227);
#225=CARTESIAN_POINT('',(0.0,0.0,0.0));
#226=DIRECTION('',(0.0,0.0,1.0));
#227=DIRECTION('',(1.0,0.0,0.0));
#228=AXIS2_PLACEMENT_3D('MCS',#229,#230,#231);
#229=CARTESIAN_POINT('',(6.0,6.0,0.0));
#230=DIRECTION('',(0.0,0.0,1.0));
#231=DIRECTION('',(1.0,0.0,0.0));
#232=CONSTRUCTIVE_GEOMETRY_REPRESENTATION_RELATIONSHIP('coordinate systems',$,#29,#233);
#233=CONSTRUCTIVE_GEOMETRY_REPRESENTATION('coordinate systems',(#224,#228),#6);
ENDSEC;
END-ISO-10303-21;
