ISO-10303-21;
HEADER;
FILE_DESCRIPTION(('no description'),'unknown implementation level');
FILE_NAME('solid_IeFvaaZRqxcFeIddSxPC1VgT_8_1.STP','  ',('CIMSOURCE GmbH'),('CADClick - KiM GmbH - www.kimweb.de'),'unknown preprocess','ACIS','unknown authorization');
FILE_SCHEMA(('automotive_design'));
ENDSEC;
DATA;
#1=MECHANICAL_DESIGN_GEOMETRIC_PRESENTATION_REPRESENTATION(' ',(#10,#11,#12,#13,#14,#15,#16,#17,#18,#19,#20,#21,#22,#23,#24),#6);
#2=PRODUCT_DEFINITION_CONTEXT('',#25,'design');
#3=APPLICATION_PROTOCOL_DEFINITION('INTERNATIONAL STANDARD','automotive_design',1994,#25);
#4=PRODUCT_CATEGORY_RELATIONSHIP('NONE','NONE',#26,#27);
#5=SHAPE_DEFINITION_REPRESENTATION(#28,#29);
#6= (GEOMETRIC_REPRESENTATION_CONTEXT(3)GLOBAL_UNCERTAINTY_ASSIGNED_CONTEXT((#32))GLOBAL_UNIT_ASSIGNED_CONTEXT((#34,#35,#36))REPRESENTATION_CONTEXT('NONE','WORKSPACE'));
#10=STYLED_ITEM('',(#38),#39);
#11=STYLED_ITEM('',(#40),#41);
#12=STYLED_ITEM('',(#42),#43);
#13=STYLED_ITEM('',(#44),#45);
#14=STYLED_ITEM('',(#46),#47);
#15=STYLED_ITEM('',(#48),#49);
#16=STYLED_ITEM('',(#50),#51);
#17=STYLED_ITEM('',(#52),#53);
#18=STYLED_ITEM('',(#54),#55);
#19=STYLED_ITEM('',(#56),#57);
#20=STYLED_ITEM('',(#58),#59);
#21=STYLED_ITEM('',(#60),#61);
#22=STYLED_ITEM('',(#62),#63);
#23=STYLED_ITEM('',(#64),#65);
#24=STYLED_ITEM('',(#66),#67);
#25=APPLICATION_CONTEXT(' ');
#26=PRODUCT_CATEGORY('part','NONE');
#27=PRODUCT_RELATED_PRODUCT_CATEGORY('detail',' ',(#68));
#28=PRODUCT_DEFINITION_SHAPE('NONE','NONE',#69);
#29=ADVANCED_BREP_SHAPE_REPRESENTATION('1',(#59,#70),#6);
#32=UNCERTAINTY_MEASURE_WITH_UNIT(LENGTH_MEASURE(1.0E-006),#34,'','');
#34= (CONVERSION_BASED_UNIT('MILLIMETRE',#73)LENGTH_UNIT()NAMED_UNIT(#76));
#35= (NAMED_UNIT(#78)PLANE_ANGLE_UNIT()SI_UNIT($,.RADIAN.));
#36= (NAMED_UNIT(#78)SOLID_ANGLE_UNIT()SI_UNIT($,.STERADIAN.));
#38=PRESENTATION_STYLE_ASSIGNMENT((#84));
#39=EDGE_CURVE('',#41,#55,#85,.T.);
#40=PRESENTATION_STYLE_ASSIGNMENT((#86));
#41=VERTEX_POINT('',#87);
#42=PRESENTATION_STYLE_ASSIGNMENT((#88));
#43=EDGE_CURVE('',#41,#61,#89,.T.);
#44=PRESENTATION_STYLE_ASSIGNMENT((#90));
#45=VERTEX_POINT('',#91);
#46=PRESENTATION_STYLE_ASSIGNMENT((#92));
#47=EDGE_CURVE('',#55,#41,#93,.T.);
#48=PRESENTATION_STYLE_ASSIGNMENT((#94));
#49=ADVANCED_FACE('',(#95),#96,.F.);
#50=PRESENTATION_STYLE_ASSIGNMENT((#97));
#51=EDGE_CURVE('',#61,#45,#98,.T.);
#52=PRESENTATION_STYLE_ASSIGNMENT((#99));
#53=EDGE_CURVE('',#45,#61,#100,.T.);
#54=PRESENTATION_STYLE_ASSIGNMENT((#101));
#55=VERTEX_POINT('',#102);
#56=PRESENTATION_STYLE_ASSIGNMENT((#103));
#57=ADVANCED_FACE('',(#104),#105,.T.);
#58=PRESENTATION_STYLE_ASSIGNMENT((#106));
#59=MANIFOLD_SOLID_BREP('1',#107);
#60=PRESENTATION_STYLE_ASSIGNMENT((#108));
#61=VERTEX_POINT('',#109);
#62=PRESENTATION_STYLE_ASSIGNMENT((#110));
#63=ADVANCED_FACE('',(#111),#112,.T.);
#64=PRESENTATION_STYLE_ASSIGNMENT((#113));
#65=ADVANCED_FACE('',(#114),#115,.T.);
#66=PRESENTATION_STYLE_ASSIGNMENT((#116));
#67=EDGE_CURVE('',#45,#55,#117,.T.);
#68=PRODUCT('1','1','PART-1-DESC',(#118));
#69=PRODUCT_DEFINITION('NONE','NONE',#119,#2);
#70=AXIS2_PLACEMENT_3D('',#120,#121,#122);
#73=LENGTH_MEASURE_WITH_UNIT(LENGTH_MEASURE(1.0),#123);
#76=DIMENSIONAL_EXPONENTS(1.0,0.0,0.0,0.0,0.0,0.0,0.0);
#78=DIMENSIONAL_EXPONENTS(0.0,0.0,0.0,0.0,0.0,0.0,0.0);
#84=CURVE_STYLE('',#124,POSITIVE_LENGTH_MEASURE(1.0E-006),#125);
#85=CIRCLE('',#126,6.91924548119429);
#86=POINT_STYLE(' ',#127,POSITIVE_LENGTH_MEASURE(1.0E-006),#128);
#87=CARTESIAN_POINT('',(1.08075451880571,8.0,-5.56));
#88=CURVE_STYLE('',#129,POSITIVE_LENGTH_MEASURE(1.0E-006),#130);
#89=LINE('',#131,#132);
#90=POINT_STYLE(' ',#133,POSITIVE_LENGTH_MEASURE(1.0E-006),#134);
#91=CARTESIAN_POINT('',(16.0,8.0,0.0));
#92=CURVE_STYLE('',#135,POSITIVE_LENGTH_MEASURE(1.0E-006),#136);
#93=CIRCLE('',#137,6.91924548119429);
#94=SURFACE_STYLE_USAGE(.BOTH.,#138);
#95=FACE_OUTER_BOUND('',#139,.T.);
#96=PLANE('',#140);
#97=CURVE_STYLE('',#141,POSITIVE_LENGTH_MEASURE(1.0E-006),#142);
#98=CIRCLE('',#143,8.0);
#99=CURVE_STYLE('',#144,POSITIVE_LENGTH_MEASURE(1.0E-006),#145);
#100=CIRCLE('',#146,8.0);
#101=POINT_STYLE(' ',#147,POSITIVE_LENGTH_MEASURE(1.0E-006),#148);
#102=CARTESIAN_POINT('',(14.9192454811943,8.0,-5.56));
#103=SURFACE_STYLE_USAGE(.BOTH.,#149);
#104=FACE_OUTER_BOUND('',#150,.T.);
#105=CONICAL_SURFACE('',#151,8.0,0.191986217719376);
#106=SURFACE_STYLE_USAGE(.BOTH.,#152);
#107=CLOSED_SHELL('',(#57,#63,#49,#65));
#108=POINT_STYLE(' ',#153,POSITIVE_LENGTH_MEASURE(1.0E-006),#154);
#109=CARTESIAN_POINT('',(2.17533787218538E-031,8.00000000000001,0.0));
#110=SURFACE_STYLE_USAGE(.BOTH.,#155);
#111=FACE_OUTER_BOUND('',#156,.T.);
#112=CONICAL_SURFACE('',#157,8.0,0.191986217719376);
#113=SURFACE_STYLE_USAGE(.BOTH.,#158);
#114=FACE_OUTER_BOUND('',#159,.T.);
#115=PLANE('',#160);
#116=CURVE_STYLE('',#161,POSITIVE_LENGTH_MEASURE(1.0E-006),#162);
#117=LINE('',#163,#164);
#118=PRODUCT_CONTEXT('',#25,'mechanical');
#119=PRODUCT_DEFINITION_FORMATION_WITH_SPECIFIED_SOURCE(' ','NONE',#68,.NOT_KNOWN.);
#120=CARTESIAN_POINT('',(0.0,0.0,0.0));
#121=DIRECTION('',(0.0,0.0,1.0));
#122=DIRECTION('',(1.0,0.0,0.0));
#123= (NAMED_UNIT(#76)LENGTH_UNIT()SI_UNIT(.MILLI.,.METRE.));
#124=DRAUGHTING_PRE_DEFINED_CURVE_FONT('continuous');
#125=COLOUR_RGB('',0.800000011920929,0.800000011920929,0.800000011920929);
#126=AXIS2_PLACEMENT_3D('',#166,#167,#168);
#127=PRE_DEFINED_MARKER('');
#128=COLOUR_RGB('',0.800000011920929,0.800000011920929,0.800000011920929);
#129=DRAUGHTING_PRE_DEFINED_CURVE_FONT('continuous');
#130=COLOUR_RGB('',0.800000011920929,0.800000011920929,0.800000011920929);
#131=CARTESIAN_POINT('',(0.0,8.0,0.0));
#132=VECTOR('',#169,1.0);
#133=PRE_DEFINED_MARKER('');
#134=COLOUR_RGB('',0.800000011920929,0.800000011920929,0.800000011920929);
#135=DRAUGHTING_PRE_DEFINED_CURVE_FONT('continuous');
#136=COLOUR_RGB('',0.800000011920929,0.800000011920929,0.800000011920929);
#137=AXIS2_PLACEMENT_3D('',#170,#171,#172);
#138=SURFACE_SIDE_STYLE('',(#173));
#139=EDGE_LOOP('',(#174,#175));
#140=AXIS2_PLACEMENT_3D('',#176,#177,#178);
#141=DRAUGHTING_PRE_DEFINED_CURVE_FONT('continuous');
#142=COLOUR_RGB('',0.800000011920929,0.800000011920929,0.800000011920929);
#143=AXIS2_PLACEMENT_3D('',#179,#180,#181);
#144=DRAUGHTING_PRE_DEFINED_CURVE_FONT('continuous');
#145=COLOUR_RGB('',0.800000011920929,0.800000011920929,0.800000011920929);
#146=AXIS2_PLACEMENT_3D('',#182,#183,#184);
#147=PRE_DEFINED_MARKER('');
#148=COLOUR_RGB('',0.800000011920929,0.800000011920929,0.800000011920929);
#149=SURFACE_SIDE_STYLE('',(#185));
#150=EDGE_LOOP('',(#186,#187,#188,#189));
#151=AXIS2_PLACEMENT_3D('',#190,#191,#192);
#152=SURFACE_SIDE_STYLE('',(#193));
#153=PRE_DEFINED_MARKER('');
#154=COLOUR_RGB('',0.800000011920929,0.800000011920929,0.800000011920929);
#155=SURFACE_SIDE_STYLE('',(#194));
#156=EDGE_LOOP('',(#195,#196,#197,#198));
#157=AXIS2_PLACEMENT_3D('',#199,#200,#201);
#158=SURFACE_SIDE_STYLE('',(#202));
#159=EDGE_LOOP('',(#203,#204));
#160=AXIS2_PLACEMENT_3D('',#205,#206,#207);
#161=DRAUGHTING_PRE_DEFINED_CURVE_FONT('continuous');
#162=COLOUR_RGB('',0.800000011920929,0.800000011920929,0.800000011920929);
#163=CARTESIAN_POINT('',(16.0,8.0,0.0));
#164=VECTOR('',#208,1.0);
#166=CARTESIAN_POINT('',(8.0,8.0,-5.56));
#167=DIRECTION('',(0.0,0.0,1.0));
#168=DIRECTION('',(-1.0,3.33066907387547E-016,0.0));
#169=DIRECTION('',(-0.190808995376545,-0.0,0.981627183447664));
#170=CARTESIAN_POINT('',(8.0,8.0,-5.56));
#171=DIRECTION('',(0.0,0.0,1.0));
#172=DIRECTION('',(-1.0,3.33066907387547E-016,0.0));
#173=SURFACE_STYLE_FILL_AREA(#209);
#174=ORIENTED_EDGE('',*,*,#47,.F.);
#175=ORIENTED_EDGE('',*,*,#39,.F.);
#176=CARTESIAN_POINT('',(8.0,8.0,-5.56));
#177=DIRECTION('',(0.0,0.0,1.0));
#178=DIRECTION('',(1.0,0.0,0.0));
#179=CARTESIAN_POINT('',(8.0,8.0,0.0));
#180=DIRECTION('',(0.0,0.0,1.0));
#181=DIRECTION('',(1.0,-2.22044604925031E-016,0.0));
#182=CARTESIAN_POINT('',(8.0,8.0,0.0));
#183=DIRECTION('',(0.0,0.0,1.0));
#184=DIRECTION('',(1.0,-2.22044604925031E-016,0.0));
#185=SURFACE_STYLE_FILL_AREA(#210);
#186=ORIENTED_EDGE('',*,*,#67,.F.);
#187=ORIENTED_EDGE('',*,*,#51,.F.);
#188=ORIENTED_EDGE('',*,*,#43,.F.);
#189=ORIENTED_EDGE('',*,*,#39,.T.);
#190=CARTESIAN_POINT('',(8.0,8.0,0.0));
#191=DIRECTION('',(-0.0,-0.0,1.0));
#192=DIRECTION('',(1.0,-2.22044604925031E-016,0.0));
#193=SURFACE_STYLE_FILL_AREA(#211);
#194=SURFACE_STYLE_FILL_AREA(#212);
#195=ORIENTED_EDGE('',*,*,#67,.T.);
#196=ORIENTED_EDGE('',*,*,#47,.T.);
#197=ORIENTED_EDGE('',*,*,#43,.T.);
#198=ORIENTED_EDGE('',*,*,#53,.F.);
#199=CARTESIAN_POINT('',(8.0,8.0,0.0));
#200=DIRECTION('',(-0.0,-0.0,1.0));
#201=DIRECTION('',(1.0,-2.22044604925031E-016,0.0));
#202=SURFACE_STYLE_FILL_AREA(#213);
#203=ORIENTED_EDGE('',*,*,#51,.T.);
#204=ORIENTED_EDGE('',*,*,#53,.T.);
#205=CARTESIAN_POINT('',(8.0,8.0,0.0));
#206=DIRECTION('',(0.0,0.0,1.0));
#207=DIRECTION('',(1.0,0.0,0.0));
#208=DIRECTION('',(-0.190808995376545,0.0,-0.981627183447664));
#209=FILL_AREA_STYLE('',(#214));
#210=FILL_AREA_STYLE('',(#215));
#211=FILL_AREA_STYLE('',(#216));
#212=FILL_AREA_STYLE('',(#217));
#213=FILL_AREA_STYLE('',(#218));
#214=FILL_AREA_STYLE_COLOUR('',#219);
#215=FILL_AREA_STYLE_COLOUR('',#220);
#216=FILL_AREA_STYLE_COLOUR('',#221);
#217=FILL_AREA_STYLE_COLOUR('',#222);
#218=FILL_AREA_STYLE_COLOUR('',#223);
#219=COLOUR_RGB('',0.800000011920929,0.800000011920929,0.800000011920929);
#220=COLOUR_RGB('',0.800000011920929,0.800000011920929,0.800000011920929);
#221=COLOUR_RGB('',0.800000011920929,0.800000011920929,0.800000011920929);
#222=COLOUR_RGB('',0.800000011920929,0.800000011920929,0.800000011920929);
#223=COLOUR_RGB('',0.800000011920929,0.800000011920929,0.800000011920929);
#224=AXIS2_PLACEMENT_3D('PCS',#225,#226,#227);
#225=CARTESIAN_POINT('',(0.0,0.0,0.0));
#226=DIRECTION('',(0.0,0.0,1.0));
#227=DIRECTION('',(1.0,0.0,0.0));
#228=AXIS2_PLACEMENT_3D('MCS',#229,#230,#231);
#229=CARTESIAN_POINT('',(8.0,8.0,0.0));
#230=DIRECTION('',(0.0,0.0,1.0));
#231=DIRECTION('',(1.0,0.0,0.0));
#232=CONSTRUCTIVE_GEOMETRY_REPRESENTATION_RELATIONSHIP('coordinate systems',$,#29,#233);
#233=CONSTRUCTIVE_GEOMETRY_REPRESENTATION('coordinate systems',(#224,#228),#6);
ENDSEC;
END-ISO-10303-21;
