ISO-10303-21;
HEADER;
FILE_DESCRIPTION(('no description'),'unknown implementation level');
FILE_NAME('solideVIIZK9VsKhHfISdsipb_V6EpY8_1.STP','  ',('CIMSOURCE GmbH'),('CADClick - KiM GmbH - www.kimweb.de'),'unknown preprocess','ACIS','unknown authorization');
FILE_SCHEMA(('automotive_design'));
ENDSEC;
DATA;
#1=MECHANICAL_DESIGN_GEOMETRIC_PRESENTATION_REPRESENTATION(' ',(#10,#11,#12,#13,#14,#15,#16,#17,#18,#19,#20,#21,#22,#23,#24,#25,#26,#27,#28,#29,#30,#31,#32,#33,#34,#35,#36,#37,#38,#39,#40,#41,#42,#43,#44,#45,#46,#47,#48,#49,#50,#51,#52,#53,#54,#55,#56,#57,#58,#59,#60),#6);
#2=PRODUCT_DEFINITION_CONTEXT('',#61,'design');
#3=APPLICATION_PROTOCOL_DEFINITION('INTERNATIONAL STANDARD','automotive_design',1994,#61);
#4=PRODUCT_CATEGORY_RELATIONSHIP('NONE','NONE',#62,#63);
#5=SHAPE_DEFINITION_REPRESENTATION(#64,#65);
#6= (GEOMETRIC_REPRESENTATION_CONTEXT(3)GLOBAL_UNCERTAINTY_ASSIGNED_CONTEXT((#68))GLOBAL_UNIT_ASSIGNED_CONTEXT((#70,#71,#72))REPRESENTATION_CONTEXT('NONE','WORKSPACE'));
#10=STYLED_ITEM('',(#74),#75);
#11=STYLED_ITEM('',(#76),#77);
#12=STYLED_ITEM('',(#78),#79);
#13=STYLED_ITEM('',(#80),#81);
#14=STYLED_ITEM('',(#82),#83);
#15=STYLED_ITEM('',(#84),#85);
#16=STYLED_ITEM('',(#86),#87);
#17=STYLED_ITEM('',(#88),#89);
#18=STYLED_ITEM('',(#90),#91);
#19=STYLED_ITEM('',(#92),#93);
#20=STYLED_ITEM('',(#94),#95);
#21=STYLED_ITEM('',(#96),#97);
#22=STYLED_ITEM('',(#98),#99);
#23=STYLED_ITEM('',(#100),#101);
#24=STYLED_ITEM('',(#102),#103);
#25=STYLED_ITEM('',(#104),#105);
#26=STYLED_ITEM('',(#106),#107);
#27=STYLED_ITEM('',(#108),#109);
#28=STYLED_ITEM('',(#110),#111);
#29=STYLED_ITEM('',(#112),#113);
#30=STYLED_ITEM('',(#114),#115);
#31=STYLED_ITEM('',(#116),#117);
#32=STYLED_ITEM('',(#118),#119);
#33=STYLED_ITEM('',(#120),#121);
#34=STYLED_ITEM('',(#122),#123);
#35=STYLED_ITEM('',(#124),#125);
#36=STYLED_ITEM('',(#126),#127);
#37=STYLED_ITEM('',(#128),#129);
#38=STYLED_ITEM('',(#130),#131);
#39=STYLED_ITEM('',(#132),#133);
#40=STYLED_ITEM('',(#134),#135);
#41=STYLED_ITEM('',(#136),#137);
#42=STYLED_ITEM('',(#138),#139);
#43=STYLED_ITEM('',(#140),#141);
#44=STYLED_ITEM('',(#142),#143);
#45=STYLED_ITEM('',(#144),#145);
#46=STYLED_ITEM('',(#146),#147);
#47=STYLED_ITEM('',(#148),#149);
#48=STYLED_ITEM('',(#150),#151);
#49=STYLED_ITEM('',(#152),#153);
#50=STYLED_ITEM('',(#154),#155);
#51=STYLED_ITEM('',(#156),#157);
#52=STYLED_ITEM('',(#158),#159);
#53=STYLED_ITEM('',(#160),#161);
#54=STYLED_ITEM('',(#162),#163);
#55=STYLED_ITEM('',(#164),#165);
#56=STYLED_ITEM('',(#166),#167);
#57=STYLED_ITEM('',(#168),#169);
#58=STYLED_ITEM('',(#170),#171);
#59=STYLED_ITEM('',(#172),#173);
#60=STYLED_ITEM('',(#174),#175);
#61=APPLICATION_CONTEXT(' ');
#62=PRODUCT_CATEGORY('part','NONE');
#63=PRODUCT_RELATED_PRODUCT_CATEGORY('detail',' ',(#176));
#64=PRODUCT_DEFINITION_SHAPE('NONE','NONE',#177);
#65=ADVANCED_BREP_SHAPE_REPRESENTATION('1',(#91,#178),#6);
#68=UNCERTAINTY_MEASURE_WITH_UNIT(LENGTH_MEASURE(1.0E-006),#70,'','');
#70= (CONVERSION_BASED_UNIT('MILLIMETRE',#181)LENGTH_UNIT()NAMED_UNIT(#184));
#71= (NAMED_UNIT(#186)PLANE_ANGLE_UNIT()SI_UNIT($,.RADIAN.));
#72= (NAMED_UNIT(#186)SOLID_ANGLE_UNIT()SI_UNIT($,.STERADIAN.));
#74=PRESENTATION_STYLE_ASSIGNMENT((#192));
#75=ADVANCED_FACE('',(#193),#194,.T.);
#76=PRESENTATION_STYLE_ASSIGNMENT((#195));
#77=VERTEX_POINT('',#196);
#78=PRESENTATION_STYLE_ASSIGNMENT((#197));
#79=EDGE_CURVE('',#119,#137,#198,.T.);
#80=PRESENTATION_STYLE_ASSIGNMENT((#199));
#81=EDGE_CURVE('',#145,#133,#200,.T.);
#82=PRESENTATION_STYLE_ASSIGNMENT((#201));
#83=VERTEX_POINT('',#202);
#84=PRESENTATION_STYLE_ASSIGNMENT((#203));
#85=EDGE_CURVE('',#83,#155,#204,.T.);
#86=PRESENTATION_STYLE_ASSIGNMENT((#205));
#87=VERTEX_POINT('',#206);
#88=PRESENTATION_STYLE_ASSIGNMENT((#207));
#89=EDGE_CURVE('',#87,#101,#208,.T.);
#90=PRESENTATION_STYLE_ASSIGNMENT((#209));
#91=MANIFOLD_SOLID_BREP('1',#210);
#92=PRESENTATION_STYLE_ASSIGNMENT((#211));
#93=ADVANCED_FACE('',(#212),#213,.T.);
#94=PRESENTATION_STYLE_ASSIGNMENT((#214));
#95=EDGE_CURVE('',#129,#135,#215,.T.);
#96=PRESENTATION_STYLE_ASSIGNMENT((#216));
#97=EDGE_CURVE('',#157,#83,#217,.T.);
#98=PRESENTATION_STYLE_ASSIGNMENT((#218));
#99=ADVANCED_FACE('',(#219),#220,.F.);
#100=PRESENTATION_STYLE_ASSIGNMENT((#221));
#101=VERTEX_POINT('',#222);
#102=PRESENTATION_STYLE_ASSIGNMENT((#223));
#103=ADVANCED_FACE('',(#224),#225,.T.);
#104=PRESENTATION_STYLE_ASSIGNMENT((#226));
#105=EDGE_CURVE('',#137,#133,#227,.T.);
#106=PRESENTATION_STYLE_ASSIGNMENT((#228));
#107=EDGE_CURVE('',#133,#83,#229,.T.);
#108=PRESENTATION_STYLE_ASSIGNMENT((#230));
#109=EDGE_CURVE('',#151,#155,#231,.T.);
#110=PRESENTATION_STYLE_ASSIGNMENT((#232));
#111=EDGE_CURVE('',#123,#119,#233,.T.);
#112=PRESENTATION_STYLE_ASSIGNMENT((#234));
#113=EDGE_CURVE('',#145,#157,#235,.T.);
#114=PRESENTATION_STYLE_ASSIGNMENT((#236));
#115=ADVANCED_FACE('',(#237),#238,.T.);
#116=PRESENTATION_STYLE_ASSIGNMENT((#239));
#117=VERTEX_POINT('',#240);
#118=PRESENTATION_STYLE_ASSIGNMENT((#241));
#119=VERTEX_POINT('',#242);
#120=PRESENTATION_STYLE_ASSIGNMENT((#243));
#121=EDGE_CURVE('',#101,#135,#244,.T.);
#122=PRESENTATION_STYLE_ASSIGNMENT((#245));
#123=VERTEX_POINT('',#246);
#124=PRESENTATION_STYLE_ASSIGNMENT((#247));
#125=ADVANCED_FACE('',(#248),#249,.T.);
#126=PRESENTATION_STYLE_ASSIGNMENT((#250));
#127=EDGE_CURVE('',#77,#175,#251,.T.);
#128=PRESENTATION_STYLE_ASSIGNMENT((#252));
#129=VERTEX_POINT('',#253);
#130=PRESENTATION_STYLE_ASSIGNMENT((#254));
#131=EDGE_CURVE('',#77,#123,#255,.T.);
#132=PRESENTATION_STYLE_ASSIGNMENT((#256));
#133=VERTEX_POINT('',#257);
#134=PRESENTATION_STYLE_ASSIGNMENT((#258));
#135=VERTEX_POINT('',#259);
#136=PRESENTATION_STYLE_ASSIGNMENT((#260));
#137=VERTEX_POINT('',#261);
#138=PRESENTATION_STYLE_ASSIGNMENT((#262));
#139=EDGE_CURVE('',#101,#77,#263,.T.);
#140=PRESENTATION_STYLE_ASSIGNMENT((#264));
#141=EDGE_CURVE('',#117,#137,#265,.T.);
#142=PRESENTATION_STYLE_ASSIGNMENT((#266));
#143=EDGE_CURVE('',#123,#117,#267,.T.);
#144=PRESENTATION_STYLE_ASSIGNMENT((#268));
#145=VERTEX_POINT('',#269);
#146=PRESENTATION_STYLE_ASSIGNMENT((#270));
#147=ADVANCED_FACE('',(#271),#272,.T.);
#148=PRESENTATION_STYLE_ASSIGNMENT((#273));
#149=ADVANCED_FACE('',(#274),#275,.T.);
#150=PRESENTATION_STYLE_ASSIGNMENT((#276));
#151=VERTEX_POINT('',#277);
#152=PRESENTATION_STYLE_ASSIGNMENT((#278));
#153=EDGE_CURVE('',#87,#129,#279,.T.);
#154=PRESENTATION_STYLE_ASSIGNMENT((#280));
#155=VERTEX_POINT('',#281);
#156=PRESENTATION_STYLE_ASSIGNMENT((#282));
#157=VERTEX_POINT('',#283);
#158=PRESENTATION_STYLE_ASSIGNMENT((#284));
#159=ADVANCED_FACE('',(#285),#286,.T.);
#160=PRESENTATION_STYLE_ASSIGNMENT((#287));
#161=EDGE_CURVE('',#135,#175,#288,.T.);
#162=PRESENTATION_STYLE_ASSIGNMENT((#289));
#163=EDGE_CURVE('',#157,#151,#290,.T.);
#164=PRESENTATION_STYLE_ASSIGNMENT((#291));
#165=EDGE_CURVE('',#155,#129,#292,.T.);
#166=PRESENTATION_STYLE_ASSIGNMENT((#293));
#167=EDGE_CURVE('',#151,#87,#294,.T.);
#168=PRESENTATION_STYLE_ASSIGNMENT((#295));
#169=EDGE_CURVE('',#117,#145,#296,.T.);
#170=PRESENTATION_STYLE_ASSIGNMENT((#297));
#171=ADVANCED_FACE('',(#298),#299,.T.);
#172=PRESENTATION_STYLE_ASSIGNMENT((#300));
#173=EDGE_CURVE('',#175,#119,#301,.T.);
#174=PRESENTATION_STYLE_ASSIGNMENT((#302));
#175=VERTEX_POINT('',#303);
#176=PRODUCT('1','1','PART-1-DESC',(#304));
#177=PRODUCT_DEFINITION('NONE','NONE',#305,#2);
#178=AXIS2_PLACEMENT_3D('',#306,#307,#308);
#181=LENGTH_MEASURE_WITH_UNIT(LENGTH_MEASURE(1.0),#309);
#184=DIMENSIONAL_EXPONENTS(1.0,0.0,0.0,0.0,0.0,0.0,0.0);
#186=DIMENSIONAL_EXPONENTS(0.0,0.0,0.0,0.0,0.0,0.0,0.0);
#192=SURFACE_STYLE_USAGE(.BOTH.,#310);
#193=FACE_OUTER_BOUND('',#311,.T.);
#194=CONICAL_SURFACE('',#312,0.999999999999998,0.15707963267949);
#195=POINT_STYLE(' ',#313,POSITIVE_LENGTH_MEASURE(1.0E-006),#314);
#196=CARTESIAN_POINT('',(12.6999999999,1.0,0.0));
#197=CURVE_STYLE('',#315,POSITIVE_LENGTH_MEASURE(1.0E-006),#316);
#198=CIRCLE('',#317,0.246090064055204);
#199=CURVE_STYLE('',#318,POSITIVE_LENGTH_MEASURE(1.0E-006),#319);
#200=LINE('',#320,#321);
#201=POINT_STYLE(' ',#322,POSITIVE_LENGTH_MEASURE(1.0E-006),#323);
#202=CARTESIAN_POINT('',(0.753909935944794,11.7,-4.76));
#203=CURVE_STYLE('',#324,POSITIVE_LENGTH_MEASURE(1.0E-006),#325);
#204=LINE('',#326,#327);
#205=POINT_STYLE(' ',#328,POSITIVE_LENGTH_MEASURE(1.0E-006),#329);
#206=CARTESIAN_POINT('',(1.0,0.0,0.0));
#207=CURVE_STYLE('',#330,POSITIVE_LENGTH_MEASURE(1.0E-006),#331);
#208=LINE('',#332,#333);
#209=SURFACE_STYLE_USAGE(.BOTH.,#334);
#210=CLOSED_SHELL('',(#171,#147,#93,#149,#75,#159,#115,#125,#99,#103));
#211=SURFACE_STYLE_USAGE(.BOTH.,#335);
#212=FACE_OUTER_BOUND('',#336,.T.);
#213=CONICAL_SURFACE('',#337,0.999999999999998,0.15707963267949);
#214=CURVE_STYLE('',#338,POSITIVE_LENGTH_MEASURE(1.0E-006),#339);
#215=LINE('',#340,#341);
#216=CURVE_STYLE('',#342,POSITIVE_LENGTH_MEASURE(1.0E-006),#343);
#217=LINE('',#344,#345);
#218=SURFACE_STYLE_USAGE(.BOTH.,#346);
#219=FACE_OUTER_BOUND('',#347,.T.);
#220=PLANE('',#348);
#221=POINT_STYLE(' ',#349,POSITIVE_LENGTH_MEASURE(1.0E-006),#350);
#222=CARTESIAN_POINT('',(11.7,0.0,0.0));
#223=SURFACE_STYLE_USAGE(.BOTH.,#351);
#224=FACE_OUTER_BOUND('',#352,.T.);
#225=PLANE('',#353);
#226=CURVE_STYLE('',#354,POSITIVE_LENGTH_MEASURE(1.0E-006),#355);
#227=LINE('',#356,#357);
#228=CURVE_STYLE('',#358,POSITIVE_LENGTH_MEASURE(1.0E-006),#359);
#229=CIRCLE('',#360,0.246090064055204);
#230=CURVE_STYLE('',#361,POSITIVE_LENGTH_MEASURE(1.0E-006),#362);
#231=LINE('',#363,#364);
#232=CURVE_STYLE('',#365,POSITIVE_LENGTH_MEASURE(1.0E-006),#366);
#233=LINE('',#367,#368);
#234=CURVE_STYLE('',#369,POSITIVE_LENGTH_MEASURE(1.0E-006),#370);
#235=CIRCLE('',#371,0.999999999999998);
#236=SURFACE_STYLE_USAGE(.BOTH.,#372);
#237=FACE_OUTER_BOUND('',#373,.T.);
#238=CONICAL_SURFACE('',#374,1.0,0.15707963267949);
#239=POINT_STYLE(' ',#375,POSITIVE_LENGTH_MEASURE(1.0E-006),#376);
#240=CARTESIAN_POINT('',(11.7,12.6999999999,0.0));
#241=POINT_STYLE(' ',#377,POSITIVE_LENGTH_MEASURE(1.0E-006),#378);
#242=CARTESIAN_POINT('',(11.9460900639552,11.6999999999246,-4.76));
#243=CURVE_STYLE('',#379,POSITIVE_LENGTH_MEASURE(1.0E-006),#380);
#244=LINE('',#381,#382);
#245=POINT_STYLE(' ',#383,POSITIVE_LENGTH_MEASURE(1.0E-006),#384);
#246=CARTESIAN_POINT('',(12.7,11.7,0.0));
#247=SURFACE_STYLE_USAGE(.BOTH.,#385);
#248=FACE_OUTER_BOUND('',#386,.T.);
#249=PLANE('',#387);
#250=CURVE_STYLE('',#388,POSITIVE_LENGTH_MEASURE(1.0E-006),#389);
#251=LINE('',#390,#391);
#252=POINT_STYLE(' ',#392,POSITIVE_LENGTH_MEASURE(1.0E-006),#393);
#253=CARTESIAN_POINT('',(1.0,0.753909935944794,-4.76));
#254=CURVE_STYLE('',#394,POSITIVE_LENGTH_MEASURE(1.0E-006),#395);
#255=LINE('',#396,#397);
#256=POINT_STYLE(' ',#398,POSITIVE_LENGTH_MEASURE(1.0E-006),#399);
#257=CARTESIAN_POINT('',(1.00000000007539,11.9460900639552,-4.76));
#258=POINT_STYLE(' ',#400,POSITIVE_LENGTH_MEASURE(1.0E-006),#401);
#259=CARTESIAN_POINT('',(11.6999999999246,0.753909936044794,-4.76));
#260=POINT_STYLE(' ',#402,POSITIVE_LENGTH_MEASURE(1.0E-006),#403);
#261=CARTESIAN_POINT('',(11.7,11.9460900640552,-4.76));
#262=CURVE_STYLE('',#404,POSITIVE_LENGTH_MEASURE(1.0E-006),#405);
#263=CIRCLE('',#406,1.0);
#264=CURVE_STYLE('',#407,POSITIVE_LENGTH_MEASURE(1.0E-006),#408);
#265=LINE('',#409,#410);
#266=CURVE_STYLE('',#411,POSITIVE_LENGTH_MEASURE(1.0E-006),#412);
#267=CIRCLE('',#413,0.999999999999998);
#268=POINT_STYLE(' ',#414,POSITIVE_LENGTH_MEASURE(1.0E-006),#415);
#269=CARTESIAN_POINT('',(1.0,12.7,0.0));
#270=SURFACE_STYLE_USAGE(.BOTH.,#416);
#271=FACE_OUTER_BOUND('',#417,.T.);
#272=PLANE('',#418);
#273=SURFACE_STYLE_USAGE(.BOTH.,#419);
#274=FACE_OUTER_BOUND('',#420,.T.);
#275=PLANE('',#421);
#276=POINT_STYLE(' ',#422,POSITIVE_LENGTH_MEASURE(1.0E-006),#423);
#277=CARTESIAN_POINT('',(0.0,1.0,0.0));
#278=CURVE_STYLE('',#424,POSITIVE_LENGTH_MEASURE(1.0E-006),#425);
#279=LINE('',#426,#427);
#280=POINT_STYLE(' ',#428,POSITIVE_LENGTH_MEASURE(1.0E-006),#429);
#281=CARTESIAN_POINT('',(0.753909936044794,1.00000000007539,-4.76));
#282=POINT_STYLE(' ',#430,POSITIVE_LENGTH_MEASURE(1.0E-006),#431);
#283=CARTESIAN_POINT('',(1.00000008274037E-010,11.7,0.0));
#284=SURFACE_STYLE_USAGE(.BOTH.,#432);
#285=FACE_OUTER_BOUND('',#433,.T.);
#286=PLANE('',#434);
#287=CURVE_STYLE('',#435,POSITIVE_LENGTH_MEASURE(1.0E-006),#436);
#288=CIRCLE('',#437,0.246090064055206);
#289=CURVE_STYLE('',#438,POSITIVE_LENGTH_MEASURE(1.0E-006),#439);
#290=LINE('',#440,#441);
#291=CURVE_STYLE('',#442,POSITIVE_LENGTH_MEASURE(1.0E-006),#443);
#292=CIRCLE('',#444,0.246090064055207);
#293=CURVE_STYLE('',#445,POSITIVE_LENGTH_MEASURE(1.0E-006),#446);
#294=CIRCLE('',#447,1.0);
#295=CURVE_STYLE('',#448,POSITIVE_LENGTH_MEASURE(1.0E-006),#449);
#296=LINE('',#450,#451);
#297=SURFACE_STYLE_USAGE(.BOTH.,#452);
#298=FACE_OUTER_BOUND('',#453,.T.);
#299=CONICAL_SURFACE('',#454,1.0,0.15707963267949);
#300=CURVE_STYLE('',#455,POSITIVE_LENGTH_MEASURE(1.0E-006),#456);
#301=LINE('',#457,#458);
#302=POINT_STYLE(' ',#459,POSITIVE_LENGTH_MEASURE(1.0E-006),#460);
#303=CARTESIAN_POINT('',(11.9460900640552,1.0,-4.76));
#304=PRODUCT_CONTEXT('',#61,'mechanical');
#305=PRODUCT_DEFINITION_FORMATION_WITH_SPECIFIED_SOURCE(' ','NONE',#176,.NOT_KNOWN.);
#306=CARTESIAN_POINT('',(0.0,0.0,0.0));
#307=DIRECTION('',(0.0,0.0,1.0));
#308=DIRECTION('',(1.0,0.0,0.0));
#309= (NAMED_UNIT(#184)LENGTH_UNIT()SI_UNIT(.MILLI.,.METRE.));
#310=SURFACE_SIDE_STYLE('',(#462));
#311=EDGE_LOOP('',(#463,#464,#465,#466));
#312=AXIS2_PLACEMENT_3D('',#467,#468,#469);
#313=PRE_DEFINED_MARKER('');
#314=COLOUR_RGB('',0.800000011920929,0.800000011920929,0.800000011920929);
#315=DRAUGHTING_PRE_DEFINED_CURVE_FONT('continuous');
#316=COLOUR_RGB('',0.800000011920929,0.800000011920929,0.800000011920929);
#317=AXIS2_PLACEMENT_3D('',#470,#471,#472);
#318=DRAUGHTING_PRE_DEFINED_CURVE_FONT('continuous');
#319=COLOUR_RGB('',0.800000011920929,0.800000011920929,0.800000011920929);
#320=CARTESIAN_POINT('',(1.0,12.7,0.0));
#321=VECTOR('',#473,1.0);
#322=PRE_DEFINED_MARKER('');
#323=COLOUR_RGB('',0.800000011920929,0.800000011920929,0.800000011920929);
#324=DRAUGHTING_PRE_DEFINED_CURVE_FONT('continuous');
#325=COLOUR_RGB('',0.800000011920929,0.800000011920929,0.800000011920929);
#326=CARTESIAN_POINT('',(0.753909935944794,11.7,-4.76));
#327=VECTOR('',#474,1.0);
#328=PRE_DEFINED_MARKER('');
#329=COLOUR_RGB('',0.800000011920929,0.800000011920929,0.800000011920929);
#330=DRAUGHTING_PRE_DEFINED_CURVE_FONT('continuous');
#331=COLOUR_RGB('',0.800000011920929,0.800000011920929,0.800000011920929);
#332=CARTESIAN_POINT('',(1.0,0.0,0.0));
#333=VECTOR('',#475,1.0);
#334=SURFACE_SIDE_STYLE('',(#476));
#335=SURFACE_SIDE_STYLE('',(#477));
#336=EDGE_LOOP('',(#478,#479,#480,#481));
#337=AXIS2_PLACEMENT_3D('',#482,#483,#484);
#338=DRAUGHTING_PRE_DEFINED_CURVE_FONT('continuous');
#339=COLOUR_RGB('',0.800000011920929,0.800000011920929,0.800000011920929);
#340=CARTESIAN_POINT('',(1.0,0.753909935944794,-4.76));
#341=VECTOR('',#485,1.0);
#342=DRAUGHTING_PRE_DEFINED_CURVE_FONT('continuous');
#343=COLOUR_RGB('',0.800000011920929,0.800000011920929,0.800000011920929);
#344=CARTESIAN_POINT('',(1.00000008274037E-010,11.7,0.0));
#345=VECTOR('',#486,1.0);
#346=SURFACE_SIDE_STYLE('',(#487));
#347=EDGE_LOOP('',(#488,#489,#490,#491,#492,#493,#494,#495));
#348=AXIS2_PLACEMENT_3D('',#496,#497,#498);
#349=PRE_DEFINED_MARKER('');
#350=COLOUR_RGB('',0.800000011920929,0.800000011920929,0.800000011920929);
#351=SURFACE_SIDE_STYLE('',(#499));
#352=EDGE_LOOP('',(#500,#501,#502,#503,#504,#505,#506,#507));
#353=AXIS2_PLACEMENT_3D('',#508,#509,#510);
#354=DRAUGHTING_PRE_DEFINED_CURVE_FONT('continuous');
#355=COLOUR_RGB('',0.800000011920929,0.800000011920929,0.800000011920929);
#356=CARTESIAN_POINT('',(11.7,11.9460900640552,-4.76));
#357=VECTOR('',#511,1.0);
#358=DRAUGHTING_PRE_DEFINED_CURVE_FONT('continuous');
#359=COLOUR_RGB('',0.800000011920929,0.800000011920929,0.800000011920929);
#360=AXIS2_PLACEMENT_3D('',#512,#513,#514);
#361=DRAUGHTING_PRE_DEFINED_CURVE_FONT('continuous');
#362=COLOUR_RGB('',0.800000011920929,0.800000011920929,0.800000011920929);
#363=CARTESIAN_POINT('',(0.0,1.0,0.0));
#364=VECTOR('',#515,1.0);
#365=DRAUGHTING_PRE_DEFINED_CURVE_FONT('continuous');
#366=COLOUR_RGB('',0.800000011920929,0.800000011920929,0.800000011920929);
#367=CARTESIAN_POINT('',(12.7,11.7,0.0));
#368=VECTOR('',#516,1.0);
#369=DRAUGHTING_PRE_DEFINED_CURVE_FONT('continuous');
#370=COLOUR_RGB('',0.800000011920929,0.800000011920929,0.800000011920929);
#371=AXIS2_PLACEMENT_3D('',#517,#518,#519);
#372=SURFACE_SIDE_STYLE('',(#520));
#373=EDGE_LOOP('',(#521,#522,#523,#524));
#374=AXIS2_PLACEMENT_3D('',#525,#526,#527);
#375=PRE_DEFINED_MARKER('');
#376=COLOUR_RGB('',0.800000011920929,0.800000011920929,0.800000011920929);
#377=PRE_DEFINED_MARKER('');
#378=COLOUR_RGB('',0.800000011920929,0.800000011920929,0.800000011920929);
#379=DRAUGHTING_PRE_DEFINED_CURVE_FONT('continuous');
#380=COLOUR_RGB('',0.800000011920929,0.800000011920929,0.800000011920929);
#381=CARTESIAN_POINT('',(11.7,0.0,0.0));
#382=VECTOR('',#528,1.0);
#383=PRE_DEFINED_MARKER('');
#384=COLOUR_RGB('',0.800000011920929,0.800000011920929,0.800000011920929);
#385=SURFACE_SIDE_STYLE('',(#529));
#386=EDGE_LOOP('',(#530,#531,#532,#533));
#387=AXIS2_PLACEMENT_3D('',#534,#535,#536);
#388=DRAUGHTING_PRE_DEFINED_CURVE_FONT('continuous');
#389=COLOUR_RGB('',0.800000011920929,0.800000011920929,0.800000011920929);
#390=CARTESIAN_POINT('',(12.6999999999,1.0,0.0));
#391=VECTOR('',#537,1.0);
#392=PRE_DEFINED_MARKER('');
#393=COLOUR_RGB('',0.800000011920929,0.800000011920929,0.800000011920929);
#394=DRAUGHTING_PRE_DEFINED_CURVE_FONT('continuous');
#395=COLOUR_RGB('',0.800000011920929,0.800000011920929,0.800000011920929);
#396=CARTESIAN_POINT('',(12.7,1.0,0.0));
#397=VECTOR('',#538,1.0);
#398=PRE_DEFINED_MARKER('');
#399=COLOUR_RGB('',0.800000011920929,0.800000011920929,0.800000011920929);
#400=PRE_DEFINED_MARKER('');
#401=COLOUR_RGB('',0.800000011920929,0.800000011920929,0.800000011920929);
#402=PRE_DEFINED_MARKER('');
#403=COLOUR_RGB('',0.800000011920929,0.800000011920929,0.800000011920929);
#404=DRAUGHTING_PRE_DEFINED_CURVE_FONT('continuous');
#405=COLOUR_RGB('',0.800000011920929,0.800000011920929,0.800000011920929);
#406=AXIS2_PLACEMENT_3D('',#539,#540,#541);
#407=DRAUGHTING_PRE_DEFINED_CURVE_FONT('continuous');
#408=COLOUR_RGB('',0.800000011920929,0.800000011920929,0.800000011920929);
#409=CARTESIAN_POINT('',(11.7,12.6999999999,0.0));
#410=VECTOR('',#542,1.0);
#411=DRAUGHTING_PRE_DEFINED_CURVE_FONT('continuous');
#412=COLOUR_RGB('',0.800000011920929,0.800000011920929,0.800000011920929);
#413=AXIS2_PLACEMENT_3D('',#543,#544,#545);
#414=PRE_DEFINED_MARKER('');
#415=COLOUR_RGB('',0.800000011920929,0.800000011920929,0.800000011920929);
#416=SURFACE_SIDE_STYLE('',(#546));
#417=EDGE_LOOP('',(#547,#548,#549,#550));
#418=AXIS2_PLACEMENT_3D('',#551,#552,#553);
#419=SURFACE_SIDE_STYLE('',(#554));
#420=EDGE_LOOP('',(#555,#556,#557,#558));
#421=AXIS2_PLACEMENT_3D('',#559,#560,#561);
#422=PRE_DEFINED_MARKER('');
#423=COLOUR_RGB('',0.800000011920929,0.800000011920929,0.800000011920929);
#424=DRAUGHTING_PRE_DEFINED_CURVE_FONT('continuous');
#425=COLOUR_RGB('',0.800000011920929,0.800000011920929,0.800000011920929);
#426=CARTESIAN_POINT('',(1.0,0.0,0.0));
#427=VECTOR('',#562,1.0);
#428=PRE_DEFINED_MARKER('');
#429=COLOUR_RGB('',0.800000011920929,0.800000011920929,0.800000011920929);
#430=PRE_DEFINED_MARKER('');
#431=COLOUR_RGB('',0.800000011920929,0.800000011920929,0.800000011920929);
#432=SURFACE_SIDE_STYLE('',(#563));
#433=EDGE_LOOP('',(#564,#565,#566,#567));
#434=AXIS2_PLACEMENT_3D('',#568,#569,#570);
#435=DRAUGHTING_PRE_DEFINED_CURVE_FONT('continuous');
#436=COLOUR_RGB('',0.800000011920929,0.800000011920929,0.800000011920929);
#437=AXIS2_PLACEMENT_3D('',#571,#572,#573);
#438=DRAUGHTING_PRE_DEFINED_CURVE_FONT('continuous');
#439=COLOUR_RGB('',0.800000011920929,0.800000011920929,0.800000011920929);
#440=CARTESIAN_POINT('',(0.0,11.7,0.0));
#441=VECTOR('',#574,1.0);
#442=DRAUGHTING_PRE_DEFINED_CURVE_FONT('continuous');
#443=COLOUR_RGB('',0.800000011920929,0.800000011920929,0.800000011920929);
#444=AXIS2_PLACEMENT_3D('',#575,#576,#577);
#445=DRAUGHTING_PRE_DEFINED_CURVE_FONT('continuous');
#446=COLOUR_RGB('',0.800000011920929,0.800000011920929,0.800000011920929);
#447=AXIS2_PLACEMENT_3D('',#578,#579,#580);
#448=DRAUGHTING_PRE_DEFINED_CURVE_FONT('continuous');
#449=COLOUR_RGB('',0.800000011920929,0.800000011920929,0.800000011920929);
#450=CARTESIAN_POINT('',(11.7,12.7,0.0));
#451=VECTOR('',#581,1.0);
#452=SURFACE_SIDE_STYLE('',(#582));
#453=EDGE_LOOP('',(#583,#584,#585,#586));
#454=AXIS2_PLACEMENT_3D('',#587,#588,#589);
#455=DRAUGHTING_PRE_DEFINED_CURVE_FONT('continuous');
#456=COLOUR_RGB('',0.800000011920929,0.800000011920929,0.800000011920929);
#457=CARTESIAN_POINT('',(11.9460900640552,1.0,-4.76));
#458=VECTOR('',#590,1.0);
#459=PRE_DEFINED_MARKER('');
#460=COLOUR_RGB('',0.800000011920929,0.800000011920929,0.800000011920929);
#462=SURFACE_STYLE_FILL_AREA(#591);
#463=ORIENTED_EDGE('',*,*,#107,.T.);
#464=ORIENTED_EDGE('',*,*,#97,.F.);
#465=ORIENTED_EDGE('',*,*,#113,.F.);
#466=ORIENTED_EDGE('',*,*,#81,.T.);
#467=CARTESIAN_POINT('',(1.0000000001,11.6999999999,0.0));
#468=DIRECTION('',(-0.0,-0.0,1.0));
#469=DIRECTION('',(-9.99983429395003E-011,1.0,0.0));
#470=CARTESIAN_POINT('',(11.6999999999,11.6999999999,-4.76));
#471=DIRECTION('',(0.0,-0.0,1.0));
#472=DIRECTION('',(1.0,9.99982319171979E-011,0.0));
#473=DIRECTION('',(1.5643176942388E-011,-0.156434465060473,-0.987688340591932));
#474=DIRECTION('',(0.0,-1.0,0.0));
#475=DIRECTION('',(1.0,0.0,0.0));
#476=SURFACE_STYLE_FILL_AREA(#592);
#477=SURFACE_STYLE_FILL_AREA(#593);
#478=ORIENTED_EDGE('',*,*,#79,.T.);
#479=ORIENTED_EDGE('',*,*,#141,.F.);
#480=ORIENTED_EDGE('',*,*,#143,.F.);
#481=ORIENTED_EDGE('',*,*,#111,.T.);
#482=CARTESIAN_POINT('',(11.6999999999,11.6999999999,0.0));
#483=DIRECTION('',(-0.0,-0.0,1.0));
#484=DIRECTION('',(1.0,9.99982319171979E-011,0.0));
#485=DIRECTION('',(1.0,0.0,0.0));
#486=DIRECTION('',(0.156434465019989,0.0,-0.987688340598344));
#487=SURFACE_STYLE_FILL_AREA(#594);
#488=ORIENTED_EDGE('',*,*,#161,.F.);
#489=ORIENTED_EDGE('',*,*,#95,.F.);
#490=ORIENTED_EDGE('',*,*,#165,.F.);
#491=ORIENTED_EDGE('',*,*,#85,.F.);
#492=ORIENTED_EDGE('',*,*,#107,.F.);
#493=ORIENTED_EDGE('',*,*,#105,.F.);
#494=ORIENTED_EDGE('',*,*,#79,.F.);
#495=ORIENTED_EDGE('',*,*,#173,.F.);
#496=CARTESIAN_POINT('',(6.35,6.35,-4.76));
#497=DIRECTION('',(0.0,0.0,1.0));
#498=DIRECTION('',(1.0,0.0,0.0));
#499=SURFACE_STYLE_FILL_AREA(#595);
#500=ORIENTED_EDGE('',*,*,#89,.T.);
#501=ORIENTED_EDGE('',*,*,#139,.T.);
#502=ORIENTED_EDGE('',*,*,#131,.T.);
#503=ORIENTED_EDGE('',*,*,#143,.T.);
#504=ORIENTED_EDGE('',*,*,#169,.T.);
#505=ORIENTED_EDGE('',*,*,#113,.T.);
#506=ORIENTED_EDGE('',*,*,#163,.T.);
#507=ORIENTED_EDGE('',*,*,#167,.T.);
#508=CARTESIAN_POINT('',(6.35,6.35,0.0));
#509=DIRECTION('',(0.0,0.0,1.0));
#510=DIRECTION('',(1.0,0.0,0.0));
#511=DIRECTION('',(-1.0,0.0,0.0));
#512=CARTESIAN_POINT('',(1.0000000001,11.6999999999,-4.76));
#513=DIRECTION('',(0.0,0.0,1.0));
#514=DIRECTION('',(-9.99983429395003E-011,1.0,0.0));
#515=DIRECTION('',(0.156434465060473,1.56434994583694E-011,-0.987688340591932));
#516=DIRECTION('',(-0.156434465060473,-1.56433151635229E-011,-0.987688340591932));
#517=CARTESIAN_POINT('',(1.0000000001,11.6999999999,0.0));
#518=DIRECTION('',(0.0,0.0,1.0));
#519=DIRECTION('',(-9.99983429395003E-011,1.0,0.0));
#520=SURFACE_STYLE_FILL_AREA(#596);
#521=ORIENTED_EDGE('',*,*,#165,.T.);
#522=ORIENTED_EDGE('',*,*,#153,.F.);
#523=ORIENTED_EDGE('',*,*,#167,.F.);
#524=ORIENTED_EDGE('',*,*,#109,.T.);
#525=CARTESIAN_POINT('',(1.0000000001,1.0000000001,0.0));
#526=DIRECTION('',(0.0,-0.0,1.0));
#527=DIRECTION('',(-1.0,-9.99991200956174E-011,0.0));
#528=DIRECTION('',(-1.56433151635229E-011,0.156434465060473,-0.987688340591932));
#529=SURFACE_STYLE_FILL_AREA(#597);
#530=ORIENTED_EDGE('',*,*,#95,.T.);
#531=ORIENTED_EDGE('',*,*,#121,.F.);
#532=ORIENTED_EDGE('',*,*,#89,.F.);
#533=ORIENTED_EDGE('',*,*,#153,.T.);
#534=CARTESIAN_POINT('',(1.0,0.0,0.0));
#535=DIRECTION('',(-0.0,-0.987688340595138,-0.156434465040231));
#536=DIRECTION('',(-1.0,0.0,0.0));
#537=DIRECTION('',(-0.156434465019989,0.0,-0.987688340598344));
#538=DIRECTION('',(0.0,1.0,0.0));
#539=CARTESIAN_POINT('',(11.6999999999,1.0000000001,0.0));
#540=DIRECTION('',(0.0,0.0,1.0));
#541=DIRECTION('',(1.00000008274037E-010,-1.0,0.0));
#542=DIRECTION('',(0.0,-0.156434465019989,-0.987688340598344));
#543=CARTESIAN_POINT('',(11.6999999999,11.6999999999,0.0));
#544=DIRECTION('',(0.0,-0.0,1.0));
#545=DIRECTION('',(1.0,9.99982319171979E-011,0.0));
#546=SURFACE_STYLE_FILL_AREA(#598);
#547=ORIENTED_EDGE('',*,*,#173,.T.);
#548=ORIENTED_EDGE('',*,*,#111,.F.);
#549=ORIENTED_EDGE('',*,*,#131,.F.);
#550=ORIENTED_EDGE('',*,*,#127,.T.);
#551=CARTESIAN_POINT('',(12.6999999999,1.0,0.0));
#552=DIRECTION('',(0.987688340598344,-0.0,-0.156434465019989));
#553=DIRECTION('',(-0.0,-1.0,0.0));
#554=SURFACE_STYLE_FILL_AREA(#599);
#555=ORIENTED_EDGE('',*,*,#105,.T.);
#556=ORIENTED_EDGE('',*,*,#81,.F.);
#557=ORIENTED_EDGE('',*,*,#169,.F.);
#558=ORIENTED_EDGE('',*,*,#141,.T.);
#559=CARTESIAN_POINT('',(11.7,12.6999999999,0.0));
#560=DIRECTION('',(0.0,0.987688340598344,-0.156434465019989));
#561=DIRECTION('',(1.0,-0.0,0.0));
#562=DIRECTION('',(0.0,0.156434465040231,-0.987688340595138));
#563=SURFACE_STYLE_FILL_AREA(#600);
#564=ORIENTED_EDGE('',*,*,#85,.T.);
#565=ORIENTED_EDGE('',*,*,#109,.F.);
#566=ORIENTED_EDGE('',*,*,#163,.F.);
#567=ORIENTED_EDGE('',*,*,#97,.T.);
#568=CARTESIAN_POINT('',(1.00000008274037E-010,11.7,0.0));
#569=DIRECTION('',(-0.987688340598344,0.0,-0.156434465019989));
#570=DIRECTION('',(0.0,1.0,0.0));
#571=CARTESIAN_POINT('',(11.6999999999,1.0000000001,-4.76));
#572=DIRECTION('',(0.0,0.0,1.0));
#573=DIRECTION('',(1.00000008274037E-010,-1.0,0.0));
#574=DIRECTION('',(0.0,-1.0,0.0));
#575=CARTESIAN_POINT('',(1.0000000001,1.0000000001,-4.76));
#576=DIRECTION('',(0.0,0.0,1.0));
#577=DIRECTION('',(-1.0,-9.99991200956174E-011,0.0));
#578=CARTESIAN_POINT('',(1.0000000001,1.0000000001,0.0));
#579=DIRECTION('',(0.0,0.0,1.0));
#580=DIRECTION('',(-1.0,-9.99991200956174E-011,0.0));
#581=DIRECTION('',(-1.0,0.0,0.0));
#582=SURFACE_STYLE_FILL_AREA(#601);
#583=ORIENTED_EDGE('',*,*,#161,.T.);
#584=ORIENTED_EDGE('',*,*,#127,.F.);
#585=ORIENTED_EDGE('',*,*,#139,.F.);
#586=ORIENTED_EDGE('',*,*,#121,.T.);
#587=CARTESIAN_POINT('',(11.6999999999,1.0000000001,0.0));
#588=DIRECTION('',(-0.0,-0.0,1.0));
#589=DIRECTION('',(1.00000008274037E-010,-1.0,0.0));
#590=DIRECTION('',(0.0,1.0,0.0));
#591=FILL_AREA_STYLE('',(#602));
#592=FILL_AREA_STYLE('',(#603));
#593=FILL_AREA_STYLE('',(#604));
#594=FILL_AREA_STYLE('',(#605));
#595=FILL_AREA_STYLE('',(#606));
#596=FILL_AREA_STYLE('',(#607));
#597=FILL_AREA_STYLE('',(#608));
#598=FILL_AREA_STYLE('',(#609));
#599=FILL_AREA_STYLE('',(#610));
#600=FILL_AREA_STYLE('',(#611));
#601=FILL_AREA_STYLE('',(#612));
#602=FILL_AREA_STYLE_COLOUR('',#613);
#603=FILL_AREA_STYLE_COLOUR('',#614);
#604=FILL_AREA_STYLE_COLOUR('',#615);
#605=FILL_AREA_STYLE_COLOUR('',#616);
#606=FILL_AREA_STYLE_COLOUR('',#617);
#607=FILL_AREA_STYLE_COLOUR('',#618);
#608=FILL_AREA_STYLE_COLOUR('',#619);
#609=FILL_AREA_STYLE_COLOUR('',#620);
#610=FILL_AREA_STYLE_COLOUR('',#621);
#611=FILL_AREA_STYLE_COLOUR('',#622);
#612=FILL_AREA_STYLE_COLOUR('',#623);
#613=COLOUR_RGB('',0.800000011920929,0.800000011920929,0.800000011920929);
#614=COLOUR_RGB('',0.800000011920929,0.800000011920929,0.800000011920929);
#615=COLOUR_RGB('',0.800000011920929,0.800000011920929,0.800000011920929);
#616=COLOUR_RGB('',0.800000011920929,0.800000011920929,0.800000011920929);
#617=COLOUR_RGB('',0.800000011920929,0.800000011920929,0.800000011920929);
#618=COLOUR_RGB('',0.800000011920929,0.800000011920929,0.800000011920929);
#619=COLOUR_RGB('',0.800000011920929,0.800000011920929,0.800000011920929);
#620=COLOUR_RGB('',0.800000011920929,0.800000011920929,0.800000011920929);
#621=COLOUR_RGB('',0.800000011920929,0.800000011920929,0.800000011920929);
#622=COLOUR_RGB('',0.800000011920929,0.800000011920929,0.800000011920929);
#623=COLOUR_RGB('',0.800000011920929,0.800000011920929,0.800000011920929);
#624=AXIS2_PLACEMENT_3D('PCS',#625,#626,#627);
#625=CARTESIAN_POINT('',(0.0,0.0,0.0));
#626=DIRECTION('',(0.0,0.0,1.0));
#627=DIRECTION('',(1.0,0.0,0.0));
#628=AXIS2_PLACEMENT_3D('MCS',#629,#630,#631);
#629=CARTESIAN_POINT('',(6.35,6.35,0.0));
#630=DIRECTION('',(0.0,0.0,1.0));
#631=DIRECTION('',(1.0,0.0,0.0));
#632=CONSTRUCTIVE_GEOMETRY_REPRESENTATION_RELATIONSHIP('coordinate systems',$,#65,#633);
#633=CONSTRUCTIVE_GEOMETRY_REPRESENTATION('coordinate systems',(#624,#628),#6);
ENDSEC;
END-ISO-10303-21;
