ISO-10303-21;
HEADER;
FILE_DESCRIPTION(('no description'),'unknown implementation level');
FILE_NAME('solidas_MP1PiYUCPfIBEjQQX_Y_xxac_1.STP','  ',('CIMSOURCE GmbH'),('CADClick - KiM GmbH - www.kimweb.de'),'unknown preprocess','ACIS','unknown authorization');
FILE_SCHEMA(('automotive_design'));
ENDSEC;
DATA;
#1=MECHANICAL_DESIGN_GEOMETRIC_PRESENTATION_REPRESENTATION(' ',(#10,#11,#12,#13,#14,#15,#16,#17,#18,#19,#20,#21,#22,#23,#24),#6);
#2=PRODUCT_DEFINITION_CONTEXT('',#25,'design');
#3=APPLICATION_PROTOCOL_DEFINITION('INTERNATIONAL STANDARD','automotive_design',1994,#25);
#4=PRODUCT_CATEGORY_RELATIONSHIP('NONE','NONE',#26,#27);
#5=SHAPE_DEFINITION_REPRESENTATION(#28,#29);
#6= (GEOMETRIC_REPRESENTATION_CONTEXT(3)GLOBAL_UNCERTAINTY_ASSIGNED_CONTEXT((#32))GLOBAL_UNIT_ASSIGNED_CONTEXT((#34,#35,#36))REPRESENTATION_CONTEXT('NONE','WORKSPACE'));
#10=STYLED_ITEM('',(#38),#39);
#11=STYLED_ITEM('',(#40),#41);
#12=STYLED_ITEM('',(#42),#43);
#13=STYLED_ITEM('',(#44),#45);
#14=STYLED_ITEM('',(#46),#47);
#15=STYLED_ITEM('',(#48),#49);
#16=STYLED_ITEM('',(#50),#51);
#17=STYLED_ITEM('',(#52),#53);
#18=STYLED_ITEM('',(#54),#55);
#19=STYLED_ITEM('',(#56),#57);
#20=STYLED_ITEM('',(#58),#59);
#21=STYLED_ITEM('',(#60),#61);
#22=STYLED_ITEM('',(#62),#63);
#23=STYLED_ITEM('',(#64),#65);
#24=STYLED_ITEM('',(#66),#67);
#25=APPLICATION_CONTEXT(' ');
#26=PRODUCT_CATEGORY('part','NONE');
#27=PRODUCT_RELATED_PRODUCT_CATEGORY('detail',' ',(#68));
#28=PRODUCT_DEFINITION_SHAPE('NONE','NONE',#69);
#29=ADVANCED_BREP_SHAPE_REPRESENTATION('1',(#53,#70),#6);
#32=UNCERTAINTY_MEASURE_WITH_UNIT(LENGTH_MEASURE(1.0E-006),#34,'','');
#34= (CONVERSION_BASED_UNIT('MILLIMETRE',#73)LENGTH_UNIT()NAMED_UNIT(#76));
#35= (NAMED_UNIT(#78)PLANE_ANGLE_UNIT()SI_UNIT($,.RADIAN.));
#36= (NAMED_UNIT(#78)SOLID_ANGLE_UNIT()SI_UNIT($,.STERADIAN.));
#38=PRESENTATION_STYLE_ASSIGNMENT((#84));
#39=ADVANCED_FACE('',(#85),#86,.F.);
#40=PRESENTATION_STYLE_ASSIGNMENT((#87));
#41=VERTEX_POINT('',#88);
#42=PRESENTATION_STYLE_ASSIGNMENT((#89));
#43=ADVANCED_FACE('',(#90),#91,.T.);
#44=PRESENTATION_STYLE_ASSIGNMENT((#92));
#45=ADVANCED_FACE('',(#93),#94,.T.);
#46=PRESENTATION_STYLE_ASSIGNMENT((#95));
#47=EDGE_CURVE('',#41,#63,#96,.T.);
#48=PRESENTATION_STYLE_ASSIGNMENT((#97));
#49=EDGE_CURVE('',#55,#41,#98,.T.);
#50=PRESENTATION_STYLE_ASSIGNMENT((#99));
#51=EDGE_CURVE('',#63,#41,#100,.T.);
#52=PRESENTATION_STYLE_ASSIGNMENT((#101));
#53=MANIFOLD_SOLID_BREP('1',#102);
#54=PRESENTATION_STYLE_ASSIGNMENT((#103));
#55=VERTEX_POINT('',#104);
#56=PRESENTATION_STYLE_ASSIGNMENT((#105));
#57=EDGE_CURVE('',#63,#59,#106,.T.);
#58=PRESENTATION_STYLE_ASSIGNMENT((#107));
#59=VERTEX_POINT('',#108);
#60=PRESENTATION_STYLE_ASSIGNMENT((#109));
#61=ADVANCED_FACE('',(#110),#111,.T.);
#62=PRESENTATION_STYLE_ASSIGNMENT((#112));
#63=VERTEX_POINT('',#113);
#64=PRESENTATION_STYLE_ASSIGNMENT((#114));
#65=EDGE_CURVE('',#55,#59,#115,.T.);
#66=PRESENTATION_STYLE_ASSIGNMENT((#116));
#67=EDGE_CURVE('',#59,#55,#117,.T.);
#68=PRODUCT('1','1','PART-1-DESC',(#118));
#69=PRODUCT_DEFINITION('NONE','NONE',#119,#2);
#70=AXIS2_PLACEMENT_3D('',#120,#121,#122);
#73=LENGTH_MEASURE_WITH_UNIT(LENGTH_MEASURE(1.0),#123);
#76=DIMENSIONAL_EXPONENTS(1.0,0.0,0.0,0.0,0.0,0.0,0.0);
#78=DIMENSIONAL_EXPONENTS(0.0,0.0,0.0,0.0,0.0,0.0,0.0);
#84=SURFACE_STYLE_USAGE(.BOTH.,#124);
#85=FACE_OUTER_BOUND('',#125,.T.);
#86=PLANE('',#126);
#87=POINT_STYLE(' ',#127,POSITIVE_LENGTH_MEASURE(1.0E-006),#128);
#88=CARTESIAN_POINT('',(9.22831017272326,5.0,-3.97));
#89=SURFACE_STYLE_USAGE(.BOTH.,#129);
#90=FACE_OUTER_BOUND('',#130,.T.);
#91=CONICAL_SURFACE('',#131,5.0,0.191986217719376);
#92=SURFACE_STYLE_USAGE(.BOTH.,#132);
#93=FACE_OUTER_BOUND('',#133,.T.);
#94=PLANE('',#134);
#95=CURVE_STYLE('',#135,POSITIVE_LENGTH_MEASURE(1.0E-006),#136);
#96=CIRCLE('',#137,4.22831017272326);
#97=CURVE_STYLE('',#138,POSITIVE_LENGTH_MEASURE(1.0E-006),#139);
#98=LINE('',#140,#141);
#99=CURVE_STYLE('',#142,POSITIVE_LENGTH_MEASURE(1.0E-006),#143);
#100=CIRCLE('',#144,4.22831017272326);
#101=SURFACE_STYLE_USAGE(.BOTH.,#145);
#102=CLOSED_SHELL('',(#61,#43,#39,#45));
#103=POINT_STYLE(' ',#146,POSITIVE_LENGTH_MEASURE(1.0E-006),#147);
#104=CARTESIAN_POINT('',(10.0,5.0,0.0));
#105=CURVE_STYLE('',#148,POSITIVE_LENGTH_MEASURE(1.0E-006),#149);
#106=LINE('',#150,#151);
#107=POINT_STYLE(' ',#152,POSITIVE_LENGTH_MEASURE(1.0E-006),#153);
#108=CARTESIAN_POINT('',(0.0,5.0,0.0));
#109=SURFACE_STYLE_USAGE(.BOTH.,#154);
#110=FACE_OUTER_BOUND('',#155,.T.);
#111=CONICAL_SURFACE('',#156,5.0,0.191986217719376);
#112=POINT_STYLE(' ',#157,POSITIVE_LENGTH_MEASURE(1.0E-006),#158);
#113=CARTESIAN_POINT('',(0.771689827276743,5.0,-3.97));
#114=CURVE_STYLE('',#159,POSITIVE_LENGTH_MEASURE(1.0E-006),#160);
#115=CIRCLE('',#161,5.0);
#116=CURVE_STYLE('',#162,POSITIVE_LENGTH_MEASURE(1.0E-006),#163);
#117=CIRCLE('',#164,5.0);
#118=PRODUCT_CONTEXT('',#25,'mechanical');
#119=PRODUCT_DEFINITION_FORMATION_WITH_SPECIFIED_SOURCE(' ','NONE',#68,.NOT_KNOWN.);
#120=CARTESIAN_POINT('',(0.0,0.0,0.0));
#121=DIRECTION('',(0.0,0.0,1.0));
#122=DIRECTION('',(1.0,0.0,0.0));
#123= (NAMED_UNIT(#76)LENGTH_UNIT()SI_UNIT(.MILLI.,.METRE.));
#124=SURFACE_SIDE_STYLE('',(#166));
#125=EDGE_LOOP('',(#167,#168));
#126=AXIS2_PLACEMENT_3D('',#169,#170,#171);
#127=PRE_DEFINED_MARKER('');
#128=COLOUR_RGB('',0.800000011920929,0.800000011920929,0.800000011920929);
#129=SURFACE_SIDE_STYLE('',(#172));
#130=EDGE_LOOP('',(#173,#174,#175,#176));
#131=AXIS2_PLACEMENT_3D('',#177,#178,#179);
#132=SURFACE_SIDE_STYLE('',(#180));
#133=EDGE_LOOP('',(#181,#182));
#134=AXIS2_PLACEMENT_3D('',#183,#184,#185);
#135=DRAUGHTING_PRE_DEFINED_CURVE_FONT('continuous');
#136=COLOUR_RGB('',0.800000011920929,0.800000011920929,0.800000011920929);
#137=AXIS2_PLACEMENT_3D('',#186,#187,#188);
#138=DRAUGHTING_PRE_DEFINED_CURVE_FONT('continuous');
#139=COLOUR_RGB('',0.800000011920929,0.800000011920929,0.800000011920929);
#140=CARTESIAN_POINT('',(10.0,5.0,0.0));
#141=VECTOR('',#189,1.0);
#142=DRAUGHTING_PRE_DEFINED_CURVE_FONT('continuous');
#143=COLOUR_RGB('',0.800000011920929,0.800000011920929,0.800000011920929);
#144=AXIS2_PLACEMENT_3D('',#190,#191,#192);
#145=SURFACE_SIDE_STYLE('',(#193));
#146=PRE_DEFINED_MARKER('');
#147=COLOUR_RGB('',0.800000011920929,0.800000011920929,0.800000011920929);
#148=DRAUGHTING_PRE_DEFINED_CURVE_FONT('continuous');
#149=COLOUR_RGB('',0.800000011920929,0.800000011920929,0.800000011920929);
#150=CARTESIAN_POINT('',(8.88178419700125E-016,5.0,0.0));
#151=VECTOR('',#194,1.0);
#152=PRE_DEFINED_MARKER('');
#153=COLOUR_RGB('',0.800000011920929,0.800000011920929,0.800000011920929);
#154=SURFACE_SIDE_STYLE('',(#195));
#155=EDGE_LOOP('',(#196,#197,#198,#199));
#156=AXIS2_PLACEMENT_3D('',#200,#201,#202);
#157=PRE_DEFINED_MARKER('');
#158=COLOUR_RGB('',0.800000011920929,0.800000011920929,0.800000011920929);
#159=DRAUGHTING_PRE_DEFINED_CURVE_FONT('continuous');
#160=COLOUR_RGB('',0.800000011920929,0.800000011920929,0.800000011920929);
#161=AXIS2_PLACEMENT_3D('',#203,#204,#205);
#162=DRAUGHTING_PRE_DEFINED_CURVE_FONT('continuous');
#163=COLOUR_RGB('',0.800000011920929,0.800000011920929,0.800000011920929);
#164=AXIS2_PLACEMENT_3D('',#206,#207,#208);
#166=SURFACE_STYLE_FILL_AREA(#209);
#167=ORIENTED_EDGE('',*,*,#47,.F.);
#168=ORIENTED_EDGE('',*,*,#51,.F.);
#169=CARTESIAN_POINT('',(5.0,5.0,-3.97));
#170=DIRECTION('',(0.0,0.0,1.0));
#171=DIRECTION('',(1.0,0.0,0.0));
#172=SURFACE_STYLE_FILL_AREA(#210);
#173=ORIENTED_EDGE('',*,*,#49,.T.);
#174=ORIENTED_EDGE('',*,*,#47,.T.);
#175=ORIENTED_EDGE('',*,*,#57,.T.);
#176=ORIENTED_EDGE('',*,*,#65,.F.);
#177=CARTESIAN_POINT('',(5.0,5.0,0.0));
#178=DIRECTION('',(-0.0,-0.0,1.0));
#179=DIRECTION('',(1.0,0.0,0.0));
#180=SURFACE_STYLE_FILL_AREA(#211);
#181=ORIENTED_EDGE('',*,*,#67,.T.);
#182=ORIENTED_EDGE('',*,*,#65,.T.);
#183=CARTESIAN_POINT('',(5.0,5.0,0.0));
#184=DIRECTION('',(0.0,0.0,1.0));
#185=DIRECTION('',(1.0,0.0,0.0));
#186=CARTESIAN_POINT('',(5.0,5.0,-3.97));
#187=DIRECTION('',(0.0,0.0,1.0));
#188=DIRECTION('',(-1.0,5.32907051820075E-016,0.0));
#189=DIRECTION('',(-0.190808995376545,-3.38944863956216E-017,-0.981627183447664));
#190=CARTESIAN_POINT('',(5.0,5.0,-3.97));
#191=DIRECTION('',(0.0,0.0,1.0));
#192=DIRECTION('',(-1.0,5.32907051820075E-016,0.0));
#193=SURFACE_STYLE_FILL_AREA(#212);
#194=DIRECTION('',(-0.190808995376545,-3.38944863956216E-017,0.981627183447664));
#195=SURFACE_STYLE_FILL_AREA(#213);
#196=ORIENTED_EDGE('',*,*,#49,.F.);
#197=ORIENTED_EDGE('',*,*,#67,.F.);
#198=ORIENTED_EDGE('',*,*,#57,.F.);
#199=ORIENTED_EDGE('',*,*,#51,.T.);
#200=CARTESIAN_POINT('',(5.0,5.0,0.0));
#201=DIRECTION('',(-0.0,-0.0,1.0));
#202=DIRECTION('',(1.0,0.0,0.0));
#203=CARTESIAN_POINT('',(5.0,5.0,0.0));
#204=DIRECTION('',(0.0,0.0,1.0));
#205=DIRECTION('',(1.0,0.0,0.0));
#206=CARTESIAN_POINT('',(5.0,5.0,0.0));
#207=DIRECTION('',(0.0,0.0,1.0));
#208=DIRECTION('',(1.0,0.0,0.0));
#209=FILL_AREA_STYLE('',(#214));
#210=FILL_AREA_STYLE('',(#215));
#211=FILL_AREA_STYLE('',(#216));
#212=FILL_AREA_STYLE('',(#217));
#213=FILL_AREA_STYLE('',(#218));
#214=FILL_AREA_STYLE_COLOUR('',#219);
#215=FILL_AREA_STYLE_COLOUR('',#220);
#216=FILL_AREA_STYLE_COLOUR('',#221);
#217=FILL_AREA_STYLE_COLOUR('',#222);
#218=FILL_AREA_STYLE_COLOUR('',#223);
#219=COLOUR_RGB('',0.800000011920929,0.800000011920929,0.800000011920929);
#220=COLOUR_RGB('',0.800000011920929,0.800000011920929,0.800000011920929);
#221=COLOUR_RGB('',0.800000011920929,0.800000011920929,0.800000011920929);
#222=COLOUR_RGB('',0.800000011920929,0.800000011920929,0.800000011920929);
#223=COLOUR_RGB('',0.800000011920929,0.800000011920929,0.800000011920929);
#224=AXIS2_PLACEMENT_3D('PCS',#225,#226,#227);
#225=CARTESIAN_POINT('',(0.0,0.0,0.0));
#226=DIRECTION('',(0.0,0.0,1.0));
#227=DIRECTION('',(1.0,0.0,0.0));
#228=AXIS2_PLACEMENT_3D('MCS',#229,#230,#231);
#229=CARTESIAN_POINT('',(5.0,5.0,0.0));
#230=DIRECTION('',(0.0,0.0,1.0));
#231=DIRECTION('',(1.0,0.0,0.0));
#232=CONSTRUCTIVE_GEOMETRY_REPRESENTATION_RELATIONSHIP('coordinate systems',$,#29,#233);
#233=CONSTRUCTIVE_GEOMETRY_REPRESENTATION('coordinate systems',(#224,#228),#6);
ENDSEC;
END-ISO-10303-21;
