ISO-10303-21;
HEADER;
FILE_DESCRIPTION(('no description'),'unknown implementation level');
FILE_NAME('solid9aN_mcdROuTK2J7bOodcBPL0b3Q_1.STP','  ',('CIMSOURCE GmbH'),('CADClick - KiM GmbH - www.kimweb.de'),'unknown preprocess','ACIS','unknown authorization');
FILE_SCHEMA(('automotive_design'));
ENDSEC;
DATA;
#1=MECHANICAL_DESIGN_GEOMETRIC_PRESENTATION_REPRESENTATION(' ',(#10,#11,#12,#13,#14,#15,#16,#17,#18,#19,#20,#21,#22,#23,#24),#6);
#2=PRODUCT_DEFINITION_CONTEXT('',#25,'design');
#3=APPLICATION_PROTOCOL_DEFINITION('INTERNATIONAL STANDARD','automotive_design',1994,#25);
#4=PRODUCT_CATEGORY_RELATIONSHIP('NONE','NONE',#26,#27);
#5=SHAPE_DEFINITION_REPRESENTATION(#28,#29);
#6= (GEOMETRIC_REPRESENTATION_CONTEXT(3)GLOBAL_UNCERTAINTY_ASSIGNED_CONTEXT((#32))GLOBAL_UNIT_ASSIGNED_CONTEXT((#34,#35,#36))REPRESENTATION_CONTEXT('NONE','WORKSPACE'));
#10=STYLED_ITEM('',(#38),#39);
#11=STYLED_ITEM('',(#40),#41);
#12=STYLED_ITEM('',(#42),#43);
#13=STYLED_ITEM('',(#44),#45);
#14=STYLED_ITEM('',(#46),#47);
#15=STYLED_ITEM('',(#48),#49);
#16=STYLED_ITEM('',(#50),#51);
#17=STYLED_ITEM('',(#52),#53);
#18=STYLED_ITEM('',(#54),#55);
#19=STYLED_ITEM('',(#56),#57);
#20=STYLED_ITEM('',(#58),#59);
#21=STYLED_ITEM('',(#60),#61);
#22=STYLED_ITEM('',(#62),#63);
#23=STYLED_ITEM('',(#64),#65);
#24=STYLED_ITEM('',(#66),#67);
#25=APPLICATION_CONTEXT(' ');
#26=PRODUCT_CATEGORY('part','NONE');
#27=PRODUCT_RELATED_PRODUCT_CATEGORY('detail',' ',(#68));
#28=PRODUCT_DEFINITION_SHAPE('NONE','NONE',#69);
#29=ADVANCED_BREP_SHAPE_REPRESENTATION('1',(#67,#70),#6);
#32=UNCERTAINTY_MEASURE_WITH_UNIT(LENGTH_MEASURE(1.0E-006),#34,'','');
#34= (CONVERSION_BASED_UNIT('MILLIMETRE',#73)LENGTH_UNIT()NAMED_UNIT(#76));
#35= (NAMED_UNIT(#78)PLANE_ANGLE_UNIT()SI_UNIT($,.RADIAN.));
#36= (NAMED_UNIT(#78)SOLID_ANGLE_UNIT()SI_UNIT($,.STERADIAN.));
#38=PRESENTATION_STYLE_ASSIGNMENT((#84));
#39=VERTEX_POINT('',#85);
#40=PRESENTATION_STYLE_ASSIGNMENT((#86));
#41=VERTEX_POINT('',#87);
#42=PRESENTATION_STYLE_ASSIGNMENT((#88));
#43=ADVANCED_FACE('',(#89),#90,.T.);
#44=PRESENTATION_STYLE_ASSIGNMENT((#91));
#45=VERTEX_POINT('',#92);
#46=PRESENTATION_STYLE_ASSIGNMENT((#93));
#47=EDGE_CURVE('',#41,#39,#94,.T.);
#48=PRESENTATION_STYLE_ASSIGNMENT((#95));
#49=ADVANCED_FACE('',(#96),#97,.T.);
#50=PRESENTATION_STYLE_ASSIGNMENT((#98));
#51=EDGE_CURVE('',#45,#39,#99,.T.);
#52=PRESENTATION_STYLE_ASSIGNMENT((#100));
#53=ADVANCED_FACE('',(#101),#102,.F.);
#54=PRESENTATION_STYLE_ASSIGNMENT((#103));
#55=VERTEX_POINT('',#104);
#56=PRESENTATION_STYLE_ASSIGNMENT((#105));
#57=ADVANCED_FACE('',(#106),#107,.T.);
#58=PRESENTATION_STYLE_ASSIGNMENT((#108));
#59=EDGE_CURVE('',#45,#55,#109,.T.);
#60=PRESENTATION_STYLE_ASSIGNMENT((#110));
#61=EDGE_CURVE('',#55,#41,#111,.T.);
#62=PRESENTATION_STYLE_ASSIGNMENT((#112));
#63=EDGE_CURVE('',#41,#55,#113,.T.);
#64=PRESENTATION_STYLE_ASSIGNMENT((#114));
#65=EDGE_CURVE('',#39,#45,#115,.T.);
#66=PRESENTATION_STYLE_ASSIGNMENT((#116));
#67=MANIFOLD_SOLID_BREP('1',#117);
#68=PRODUCT('1','1','PART-1-DESC',(#118));
#69=PRODUCT_DEFINITION('NONE','NONE',#119,#2);
#70=AXIS2_PLACEMENT_3D('',#120,#121,#122);
#73=LENGTH_MEASURE_WITH_UNIT(LENGTH_MEASURE(1.0),#123);
#76=DIMENSIONAL_EXPONENTS(1.0,0.0,0.0,0.0,0.0,0.0,0.0);
#78=DIMENSIONAL_EXPONENTS(0.0,0.0,0.0,0.0,0.0,0.0,0.0);
#84=POINT_STYLE(' ',#124,POSITIVE_LENGTH_MEASURE(1.0E-006),#125);
#85=CARTESIAN_POINT('',(3.5527136788005E-015,6.00000000000001,0.0));
#86=POINT_STYLE(' ',#126,POSITIVE_LENGTH_MEASURE(1.0E-006),#127);
#87=CARTESIAN_POINT('',(0.92525027149554,6.0,-4.76));
#88=SURFACE_STYLE_USAGE(.BOTH.,#128);
#89=FACE_OUTER_BOUND('',#129,.T.);
#90=PLANE('',#130);
#91=POINT_STYLE(' ',#131,POSITIVE_LENGTH_MEASURE(1.0E-006),#132);
#92=CARTESIAN_POINT('',(12.0,6.0,0.0));
#93=CURVE_STYLE('',#133,POSITIVE_LENGTH_MEASURE(1.0E-006),#134);
#94=LINE('',#135,#136);
#95=SURFACE_STYLE_USAGE(.BOTH.,#137);
#96=FACE_OUTER_BOUND('',#138,.T.);
#97=CONICAL_SURFACE('',#139,6.0,0.191986217719376);
#98=CURVE_STYLE('',#140,POSITIVE_LENGTH_MEASURE(1.0E-006),#141);
#99=CIRCLE('',#142,6.0);
#100=SURFACE_STYLE_USAGE(.BOTH.,#143);
#101=FACE_OUTER_BOUND('',#144,.T.);
#102=PLANE('',#145);
#103=POINT_STYLE(' ',#146,POSITIVE_LENGTH_MEASURE(1.0E-006),#147);
#104=CARTESIAN_POINT('',(11.0747497285045,6.0,-4.76));
#105=SURFACE_STYLE_USAGE(.BOTH.,#148);
#106=FACE_OUTER_BOUND('',#149,.T.);
#107=CONICAL_SURFACE('',#150,6.0,0.191986217719376);
#108=CURVE_STYLE('',#151,POSITIVE_LENGTH_MEASURE(1.0E-006),#152);
#109=LINE('',#153,#154);
#110=CURVE_STYLE('',#155,POSITIVE_LENGTH_MEASURE(1.0E-006),#156);
#111=CIRCLE('',#157,5.07474972850446);
#112=CURVE_STYLE('',#158,POSITIVE_LENGTH_MEASURE(1.0E-006),#159);
#113=CIRCLE('',#160,5.07474972850446);
#114=CURVE_STYLE('',#161,POSITIVE_LENGTH_MEASURE(1.0E-006),#162);
#115=CIRCLE('',#163,6.0);
#116=SURFACE_STYLE_USAGE(.BOTH.,#164);
#117=CLOSED_SHELL('',(#57,#49,#53,#43));
#118=PRODUCT_CONTEXT('',#25,'mechanical');
#119=PRODUCT_DEFINITION_FORMATION_WITH_SPECIFIED_SOURCE(' ','NONE',#68,.NOT_KNOWN.);
#120=CARTESIAN_POINT('',(0.0,0.0,0.0));
#121=DIRECTION('',(0.0,0.0,1.0));
#122=DIRECTION('',(1.0,0.0,0.0));
#123= (NAMED_UNIT(#76)LENGTH_UNIT()SI_UNIT(.MILLI.,.METRE.));
#124=PRE_DEFINED_MARKER('');
#125=COLOUR_RGB('',0.800000011920929,0.800000011920929,0.800000011920929);
#126=PRE_DEFINED_MARKER('');
#127=COLOUR_RGB('',0.800000011920929,0.800000011920929,0.800000011920929);
#128=SURFACE_SIDE_STYLE('',(#166));
#129=EDGE_LOOP('',(#167,#168));
#130=AXIS2_PLACEMENT_3D('',#169,#170,#171);
#131=PRE_DEFINED_MARKER('');
#132=COLOUR_RGB('',0.800000011920929,0.800000011920929,0.800000011920929);
#133=DRAUGHTING_PRE_DEFINED_CURVE_FONT('continuous');
#134=COLOUR_RGB('',0.800000011920929,0.800000011920929,0.800000011920929);
#135=CARTESIAN_POINT('',(4.44089209850063E-015,6.0,0.0));
#136=VECTOR('',#172,1.0);
#137=SURFACE_SIDE_STYLE('',(#173));
#138=EDGE_LOOP('',(#174,#175,#176,#177));
#139=AXIS2_PLACEMENT_3D('',#178,#179,#180);
#140=DRAUGHTING_PRE_DEFINED_CURVE_FONT('continuous');
#141=COLOUR_RGB('',0.800000011920929,0.800000011920929,0.800000011920929);
#142=AXIS2_PLACEMENT_3D('',#181,#182,#183);
#143=SURFACE_SIDE_STYLE('',(#184));
#144=EDGE_LOOP('',(#185,#186));
#145=AXIS2_PLACEMENT_3D('',#187,#188,#189);
#146=PRE_DEFINED_MARKER('');
#147=COLOUR_RGB('',0.800000011920929,0.800000011920929,0.800000011920929);
#148=SURFACE_SIDE_STYLE('',(#190));
#149=EDGE_LOOP('',(#191,#192,#193,#194));
#150=AXIS2_PLACEMENT_3D('',#195,#196,#197);
#151=DRAUGHTING_PRE_DEFINED_CURVE_FONT('continuous');
#152=COLOUR_RGB('',0.800000011920929,0.800000011920929,0.800000011920929);
#153=CARTESIAN_POINT('',(12.0,6.0,0.0));
#154=VECTOR('',#198,1.0);
#155=DRAUGHTING_PRE_DEFINED_CURVE_FONT('continuous');
#156=COLOUR_RGB('',0.800000011920929,0.800000011920929,0.800000011920929);
#157=AXIS2_PLACEMENT_3D('',#199,#200,#201);
#158=DRAUGHTING_PRE_DEFINED_CURVE_FONT('continuous');
#159=COLOUR_RGB('',0.800000011920929,0.800000011920929,0.800000011920929);
#160=AXIS2_PLACEMENT_3D('',#202,#203,#204);
#161=DRAUGHTING_PRE_DEFINED_CURVE_FONT('continuous');
#162=COLOUR_RGB('',0.800000011920929,0.800000011920929,0.800000011920929);
#163=AXIS2_PLACEMENT_3D('',#205,#206,#207);
#164=SURFACE_SIDE_STYLE('',(#208));
#166=SURFACE_STYLE_FILL_AREA(#209);
#167=ORIENTED_EDGE('',*,*,#65,.T.);
#168=ORIENTED_EDGE('',*,*,#51,.T.);
#169=CARTESIAN_POINT('',(6.0,6.0,0.0));
#170=DIRECTION('',(0.0,0.0,1.0));
#171=DIRECTION('',(1.0,0.0,0.0));
#172=DIRECTION('',(-0.190808995376545,5.64908106593693E-017,0.981627183447664));
#173=SURFACE_STYLE_FILL_AREA(#210);
#174=ORIENTED_EDGE('',*,*,#59,.T.);
#175=ORIENTED_EDGE('',*,*,#61,.T.);
#176=ORIENTED_EDGE('',*,*,#47,.T.);
#177=ORIENTED_EDGE('',*,*,#51,.F.);
#178=CARTESIAN_POINT('',(6.0,6.0,0.0));
#179=DIRECTION('',(-0.0,-0.0,1.0));
#180=DIRECTION('',(1.0,-4.44089209850063E-016,0.0));
#181=CARTESIAN_POINT('',(6.0,6.0,0.0));
#182=DIRECTION('',(0.0,0.0,1.0));
#183=DIRECTION('',(1.0,-4.44089209850063E-016,0.0));
#184=SURFACE_STYLE_FILL_AREA(#211);
#185=ORIENTED_EDGE('',*,*,#61,.F.);
#186=ORIENTED_EDGE('',*,*,#63,.F.);
#187=CARTESIAN_POINT('',(6.0,6.0,-4.76));
#188=DIRECTION('',(0.0,0.0,1.0));
#189=DIRECTION('',(1.0,0.0,0.0));
#190=SURFACE_STYLE_FILL_AREA(#212);
#191=ORIENTED_EDGE('',*,*,#59,.F.);
#192=ORIENTED_EDGE('',*,*,#65,.F.);
#193=ORIENTED_EDGE('',*,*,#47,.F.);
#194=ORIENTED_EDGE('',*,*,#63,.T.);
#195=CARTESIAN_POINT('',(6.0,6.0,0.0));
#196=DIRECTION('',(-0.0,-0.0,1.0));
#197=DIRECTION('',(1.0,-4.44089209850063E-016,0.0));
#198=DIRECTION('',(-0.190808995376545,5.64908106593693E-017,-0.981627183447664));
#199=CARTESIAN_POINT('',(6.0,6.0,-4.76));
#200=DIRECTION('',(0.0,0.0,1.0));
#201=DIRECTION('',(-1.0,1.48029736616688E-016,0.0));
#202=CARTESIAN_POINT('',(6.0,6.0,-4.76));
#203=DIRECTION('',(0.0,0.0,1.0));
#204=DIRECTION('',(-1.0,1.48029736616688E-016,0.0));
#205=CARTESIAN_POINT('',(6.0,6.0,0.0));
#206=DIRECTION('',(0.0,0.0,1.0));
#207=DIRECTION('',(1.0,-4.44089209850063E-016,0.0));
#208=SURFACE_STYLE_FILL_AREA(#213);
#209=FILL_AREA_STYLE('',(#214));
#210=FILL_AREA_STYLE('',(#215));
#211=FILL_AREA_STYLE('',(#216));
#212=FILL_AREA_STYLE('',(#217));
#213=FILL_AREA_STYLE('',(#218));
#214=FILL_AREA_STYLE_COLOUR('',#219);
#215=FILL_AREA_STYLE_COLOUR('',#220);
#216=FILL_AREA_STYLE_COLOUR('',#221);
#217=FILL_AREA_STYLE_COLOUR('',#222);
#218=FILL_AREA_STYLE_COLOUR('',#223);
#219=COLOUR_RGB('',0.800000011920929,0.800000011920929,0.800000011920929);
#220=COLOUR_RGB('',0.800000011920929,0.800000011920929,0.800000011920929);
#221=COLOUR_RGB('',0.800000011920929,0.800000011920929,0.800000011920929);
#222=COLOUR_RGB('',0.800000011920929,0.800000011920929,0.800000011920929);
#223=COLOUR_RGB('',0.800000011920929,0.800000011920929,0.800000011920929);
#224=AXIS2_PLACEMENT_3D('PCS',#225,#226,#227);
#225=CARTESIAN_POINT('',(0.0,0.0,0.0));
#226=DIRECTION('',(0.0,0.0,1.0));
#227=DIRECTION('',(1.0,0.0,0.0));
#228=AXIS2_PLACEMENT_3D('MCS',#229,#230,#231);
#229=CARTESIAN_POINT('',(6.0,6.0,0.0));
#230=DIRECTION('',(0.0,0.0,1.0));
#231=DIRECTION('',(1.0,0.0,0.0));
#232=CONSTRUCTIVE_GEOMETRY_REPRESENTATION_RELATIONSHIP('coordinate systems',$,#29,#233);
#233=CONSTRUCTIVE_GEOMETRY_REPRESENTATION('coordinate systems',(#224,#228),#6);
ENDSEC;
END-ISO-10303-21;
