ISO-10303-21;
HEADER;
FILE_DESCRIPTION(('no description'),'unknown implementation level');
FILE_NAME('solidkZ59QUkcNWSqU63F4tohSHSNDDM_1.STP','  ',('CIMSOURCE GmbH'),('CADClick - KiM GmbH - www.kimweb.de'),'unknown preprocess','ACIS','unknown authorization');
FILE_SCHEMA(('automotive_design'));
ENDSEC;
DATA;
#1=MECHANICAL_DESIGN_GEOMETRIC_PRESENTATION_REPRESENTATION(' ',(#10,#11,#12,#13,#14,#15,#16,#17,#18,#19,#20,#21,#22,#23,#24),#6);
#2=PRODUCT_DEFINITION_CONTEXT('',#25,'design');
#3=APPLICATION_PROTOCOL_DEFINITION('INTERNATIONAL STANDARD','automotive_design',1994,#25);
#4=PRODUCT_CATEGORY_RELATIONSHIP('NONE','NONE',#26,#27);
#5=SHAPE_DEFINITION_REPRESENTATION(#28,#29);
#6= (GEOMETRIC_REPRESENTATION_CONTEXT(3)GLOBAL_UNCERTAINTY_ASSIGNED_CONTEXT((#32))GLOBAL_UNIT_ASSIGNED_CONTEXT((#34,#35,#36))REPRESENTATION_CONTEXT('NONE','WORKSPACE'));
#10=STYLED_ITEM('',(#38),#39);
#11=STYLED_ITEM('',(#40),#41);
#12=STYLED_ITEM('',(#42),#43);
#13=STYLED_ITEM('',(#44),#45);
#14=STYLED_ITEM('',(#46),#47);
#15=STYLED_ITEM('',(#48),#49);
#16=STYLED_ITEM('',(#50),#51);
#17=STYLED_ITEM('',(#52),#53);
#18=STYLED_ITEM('',(#54),#55);
#19=STYLED_ITEM('',(#56),#57);
#20=STYLED_ITEM('',(#58),#59);
#21=STYLED_ITEM('',(#60),#61);
#22=STYLED_ITEM('',(#62),#63);
#23=STYLED_ITEM('',(#64),#65);
#24=STYLED_ITEM('',(#66),#67);
#25=APPLICATION_CONTEXT(' ');
#26=PRODUCT_CATEGORY('part','NONE');
#27=PRODUCT_RELATED_PRODUCT_CATEGORY('detail',' ',(#68));
#28=PRODUCT_DEFINITION_SHAPE('NONE','NONE',#69);
#29=ADVANCED_BREP_SHAPE_REPRESENTATION('1',(#61,#70),#6);
#32=UNCERTAINTY_MEASURE_WITH_UNIT(LENGTH_MEASURE(1.0E-006),#34,'','');
#34= (CONVERSION_BASED_UNIT('MILLIMETRE',#73)LENGTH_UNIT()NAMED_UNIT(#76));
#35= (NAMED_UNIT(#78)PLANE_ANGLE_UNIT()SI_UNIT($,.RADIAN.));
#36= (NAMED_UNIT(#78)SOLID_ANGLE_UNIT()SI_UNIT($,.STERADIAN.));
#38=PRESENTATION_STYLE_ASSIGNMENT((#84));
#39=VERTEX_POINT('',#85);
#40=PRESENTATION_STYLE_ASSIGNMENT((#86));
#41=EDGE_CURVE('',#45,#43,#87,.T.);
#42=PRESENTATION_STYLE_ASSIGNMENT((#88));
#43=VERTEX_POINT('',#89);
#44=PRESENTATION_STYLE_ASSIGNMENT((#90));
#45=VERTEX_POINT('',#91);
#46=PRESENTATION_STYLE_ASSIGNMENT((#92));
#47=EDGE_CURVE('',#51,#39,#93,.T.);
#48=PRESENTATION_STYLE_ASSIGNMENT((#94));
#49=EDGE_CURVE('',#39,#51,#95,.T.);
#50=PRESENTATION_STYLE_ASSIGNMENT((#96));
#51=VERTEX_POINT('',#97);
#52=PRESENTATION_STYLE_ASSIGNMENT((#98));
#53=EDGE_CURVE('',#43,#45,#99,.T.);
#54=PRESENTATION_STYLE_ASSIGNMENT((#100));
#55=ADVANCED_FACE('',(#101),#102,.T.);
#56=PRESENTATION_STYLE_ASSIGNMENT((#103));
#57=EDGE_CURVE('',#51,#45,#104,.T.);
#58=PRESENTATION_STYLE_ASSIGNMENT((#105));
#59=ADVANCED_FACE('',(#106),#107,.T.);
#60=PRESENTATION_STYLE_ASSIGNMENT((#108));
#61=MANIFOLD_SOLID_BREP('1',#109);
#62=PRESENTATION_STYLE_ASSIGNMENT((#110));
#63=ADVANCED_FACE('',(#111),#112,.T.);
#64=PRESENTATION_STYLE_ASSIGNMENT((#113));
#65=EDGE_CURVE('',#43,#39,#114,.T.);
#66=PRESENTATION_STYLE_ASSIGNMENT((#115));
#67=ADVANCED_FACE('',(#116),#117,.F.);
#68=PRODUCT('1','1','PART-1-DESC',(#118));
#69=PRODUCT_DEFINITION('NONE','NONE',#119,#2);
#70=AXIS2_PLACEMENT_3D('',#120,#121,#122);
#73=LENGTH_MEASURE_WITH_UNIT(LENGTH_MEASURE(1.0),#123);
#76=DIMENSIONAL_EXPONENTS(1.0,0.0,0.0,0.0,0.0,0.0,0.0);
#78=DIMENSIONAL_EXPONENTS(0.0,0.0,0.0,0.0,0.0,0.0,0.0);
#84=POINT_STYLE(' ',#124,POSITIVE_LENGTH_MEASURE(1.0E-006),#125);
#85=CARTESIAN_POINT('',(2.17533787218538E-031,8.00000000000001,0.0));
#86=CURVE_STYLE('',#126,POSITIVE_LENGTH_MEASURE(1.0E-006),#127);
#87=CIRCLE('',#128,6.91924548119429);
#88=POINT_STYLE(' ',#129,POSITIVE_LENGTH_MEASURE(1.0E-006),#130);
#89=CARTESIAN_POINT('',(1.08075451880571,8.0,-5.56));
#90=POINT_STYLE(' ',#131,POSITIVE_LENGTH_MEASURE(1.0E-006),#132);
#91=CARTESIAN_POINT('',(14.9192454811943,8.0,-5.56));
#92=CURVE_STYLE('',#133,POSITIVE_LENGTH_MEASURE(1.0E-006),#134);
#93=CIRCLE('',#135,8.0);
#94=CURVE_STYLE('',#136,POSITIVE_LENGTH_MEASURE(1.0E-006),#137);
#95=CIRCLE('',#138,8.0);
#96=POINT_STYLE(' ',#139,POSITIVE_LENGTH_MEASURE(1.0E-006),#140);
#97=CARTESIAN_POINT('',(16.0,8.0,0.0));
#98=CURVE_STYLE('',#141,POSITIVE_LENGTH_MEASURE(1.0E-006),#142);
#99=CIRCLE('',#143,6.91924548119429);
#100=SURFACE_STYLE_USAGE(.BOTH.,#144);
#101=FACE_OUTER_BOUND('',#145,.T.);
#102=PLANE('',#146);
#103=CURVE_STYLE('',#147,POSITIVE_LENGTH_MEASURE(1.0E-006),#148);
#104=LINE('',#149,#150);
#105=SURFACE_STYLE_USAGE(.BOTH.,#151);
#106=FACE_OUTER_BOUND('',#152,.T.);
#107=CONICAL_SURFACE('',#153,8.0,0.191986217719376);
#108=SURFACE_STYLE_USAGE(.BOTH.,#154);
#109=CLOSED_SHELL('',(#59,#63,#67,#55));
#110=SURFACE_STYLE_USAGE(.BOTH.,#155);
#111=FACE_OUTER_BOUND('',#156,.T.);
#112=CONICAL_SURFACE('',#157,8.0,0.191986217719376);
#113=CURVE_STYLE('',#158,POSITIVE_LENGTH_MEASURE(1.0E-006),#159);
#114=LINE('',#160,#161);
#115=SURFACE_STYLE_USAGE(.BOTH.,#162);
#116=FACE_OUTER_BOUND('',#163,.T.);
#117=PLANE('',#164);
#118=PRODUCT_CONTEXT('',#25,'mechanical');
#119=PRODUCT_DEFINITION_FORMATION_WITH_SPECIFIED_SOURCE(' ','NONE',#68,.NOT_KNOWN.);
#120=CARTESIAN_POINT('',(0.0,0.0,0.0));
#121=DIRECTION('',(0.0,0.0,1.0));
#122=DIRECTION('',(1.0,0.0,0.0));
#123= (NAMED_UNIT(#76)LENGTH_UNIT()SI_UNIT(.MILLI.,.METRE.));
#124=PRE_DEFINED_MARKER('');
#125=COLOUR_RGB('',0.800000011920929,0.800000011920929,0.800000011920929);
#126=DRAUGHTING_PRE_DEFINED_CURVE_FONT('continuous');
#127=COLOUR_RGB('',0.800000011920929,0.800000011920929,0.800000011920929);
#128=AXIS2_PLACEMENT_3D('',#166,#167,#168);
#129=PRE_DEFINED_MARKER('');
#130=COLOUR_RGB('',0.800000011920929,0.800000011920929,0.800000011920929);
#131=PRE_DEFINED_MARKER('');
#132=COLOUR_RGB('',0.800000011920929,0.800000011920929,0.800000011920929);
#133=DRAUGHTING_PRE_DEFINED_CURVE_FONT('continuous');
#134=COLOUR_RGB('',0.800000011920929,0.800000011920929,0.800000011920929);
#135=AXIS2_PLACEMENT_3D('',#169,#170,#171);
#136=DRAUGHTING_PRE_DEFINED_CURVE_FONT('continuous');
#137=COLOUR_RGB('',0.800000011920929,0.800000011920929,0.800000011920929);
#138=AXIS2_PLACEMENT_3D('',#172,#173,#174);
#139=PRE_DEFINED_MARKER('');
#140=COLOUR_RGB('',0.800000011920929,0.800000011920929,0.800000011920929);
#141=DRAUGHTING_PRE_DEFINED_CURVE_FONT('continuous');
#142=COLOUR_RGB('',0.800000011920929,0.800000011920929,0.800000011920929);
#143=AXIS2_PLACEMENT_3D('',#175,#176,#177);
#144=SURFACE_SIDE_STYLE('',(#178));
#145=EDGE_LOOP('',(#179,#180));
#146=AXIS2_PLACEMENT_3D('',#181,#182,#183);
#147=DRAUGHTING_PRE_DEFINED_CURVE_FONT('continuous');
#148=COLOUR_RGB('',0.800000011920929,0.800000011920929,0.800000011920929);
#149=CARTESIAN_POINT('',(16.0,8.0,0.0));
#150=VECTOR('',#184,1.0);
#151=SURFACE_SIDE_STYLE('',(#185));
#152=EDGE_LOOP('',(#186,#187,#188,#189));
#153=AXIS2_PLACEMENT_3D('',#190,#191,#192);
#154=SURFACE_SIDE_STYLE('',(#193));
#155=SURFACE_SIDE_STYLE('',(#194));
#156=EDGE_LOOP('',(#195,#196,#197,#198));
#157=AXIS2_PLACEMENT_3D('',#199,#200,#201);
#158=DRAUGHTING_PRE_DEFINED_CURVE_FONT('continuous');
#159=COLOUR_RGB('',0.800000011920929,0.800000011920929,0.800000011920929);
#160=CARTESIAN_POINT('',(0.0,8.0,0.0));
#161=VECTOR('',#202,1.0);
#162=SURFACE_SIDE_STYLE('',(#203));
#163=EDGE_LOOP('',(#204,#205));
#164=AXIS2_PLACEMENT_3D('',#206,#207,#208);
#166=CARTESIAN_POINT('',(8.0,8.0,-5.56));
#167=DIRECTION('',(0.0,0.0,1.0));
#168=DIRECTION('',(-1.0,3.33066907387547E-016,0.0));
#169=CARTESIAN_POINT('',(8.0,8.0,0.0));
#170=DIRECTION('',(0.0,0.0,1.0));
#171=DIRECTION('',(1.0,-2.22044604925031E-016,0.0));
#172=CARTESIAN_POINT('',(8.0,8.0,0.0));
#173=DIRECTION('',(0.0,0.0,1.0));
#174=DIRECTION('',(1.0,-2.22044604925031E-016,0.0));
#175=CARTESIAN_POINT('',(8.0,8.0,-5.56));
#176=DIRECTION('',(0.0,0.0,1.0));
#177=DIRECTION('',(-1.0,3.33066907387547E-016,0.0));
#178=SURFACE_STYLE_FILL_AREA(#209);
#179=ORIENTED_EDGE('',*,*,#49,.T.);
#180=ORIENTED_EDGE('',*,*,#47,.T.);
#181=CARTESIAN_POINT('',(8.0,8.0,0.0));
#182=DIRECTION('',(0.0,0.0,1.0));
#183=DIRECTION('',(1.0,0.0,0.0));
#184=DIRECTION('',(-0.190808995376545,0.0,-0.981627183447664));
#185=SURFACE_STYLE_FILL_AREA(#210);
#186=ORIENTED_EDGE('',*,*,#57,.F.);
#187=ORIENTED_EDGE('',*,*,#49,.F.);
#188=ORIENTED_EDGE('',*,*,#65,.F.);
#189=ORIENTED_EDGE('',*,*,#53,.T.);
#190=CARTESIAN_POINT('',(8.0,8.0,0.0));
#191=DIRECTION('',(-0.0,-0.0,1.0));
#192=DIRECTION('',(1.0,-2.22044604925031E-016,0.0));
#193=SURFACE_STYLE_FILL_AREA(#211);
#194=SURFACE_STYLE_FILL_AREA(#212);
#195=ORIENTED_EDGE('',*,*,#57,.T.);
#196=ORIENTED_EDGE('',*,*,#41,.T.);
#197=ORIENTED_EDGE('',*,*,#65,.T.);
#198=ORIENTED_EDGE('',*,*,#47,.F.);
#199=CARTESIAN_POINT('',(8.0,8.0,0.0));
#200=DIRECTION('',(-0.0,-0.0,1.0));
#201=DIRECTION('',(1.0,-2.22044604925031E-016,0.0));
#202=DIRECTION('',(-0.190808995376545,-0.0,0.981627183447664));
#203=SURFACE_STYLE_FILL_AREA(#213);
#204=ORIENTED_EDGE('',*,*,#41,.F.);
#205=ORIENTED_EDGE('',*,*,#53,.F.);
#206=CARTESIAN_POINT('',(8.0,8.0,-5.56));
#207=DIRECTION('',(0.0,0.0,1.0));
#208=DIRECTION('',(1.0,0.0,0.0));
#209=FILL_AREA_STYLE('',(#214));
#210=FILL_AREA_STYLE('',(#215));
#211=FILL_AREA_STYLE('',(#216));
#212=FILL_AREA_STYLE('',(#217));
#213=FILL_AREA_STYLE('',(#218));
#214=FILL_AREA_STYLE_COLOUR('',#219);
#215=FILL_AREA_STYLE_COLOUR('',#220);
#216=FILL_AREA_STYLE_COLOUR('',#221);
#217=FILL_AREA_STYLE_COLOUR('',#222);
#218=FILL_AREA_STYLE_COLOUR('',#223);
#219=COLOUR_RGB('',0.800000011920929,0.800000011920929,0.800000011920929);
#220=COLOUR_RGB('',0.800000011920929,0.800000011920929,0.800000011920929);
#221=COLOUR_RGB('',0.800000011920929,0.800000011920929,0.800000011920929);
#222=COLOUR_RGB('',0.800000011920929,0.800000011920929,0.800000011920929);
#223=COLOUR_RGB('',0.800000011920929,0.800000011920929,0.800000011920929);
#224=AXIS2_PLACEMENT_3D('PCS',#225,#226,#227);
#225=CARTESIAN_POINT('',(0.0,0.0,0.0));
#226=DIRECTION('',(0.0,0.0,1.0));
#227=DIRECTION('',(1.0,0.0,0.0));
#228=AXIS2_PLACEMENT_3D('MCS',#229,#230,#231);
#229=CARTESIAN_POINT('',(8.0,8.0,0.0));
#230=DIRECTION('',(0.0,0.0,1.0));
#231=DIRECTION('',(1.0,0.0,0.0));
#232=CONSTRUCTIVE_GEOMETRY_REPRESENTATION_RELATIONSHIP('coordinate systems',$,#29,#233);
#233=CONSTRUCTIVE_GEOMETRY_REPRESENTATION('coordinate systems',(#224,#228),#6);
ENDSEC;
END-ISO-10303-21;
