ISO-10303-21;
HEADER;
FILE_DESCRIPTION(('no description'),'unknown implementation level');
FILE_NAME('solidhPl_s7naGhdh6zpY7Vt_8jGjP5U_1.STP','  ',('CIMSOURCE GmbH'),('CADClick - KiM GmbH - www.kimweb.de'),'unknown preprocess','ACIS','unknown authorization');
FILE_SCHEMA(('automotive_design'));
ENDSEC;
DATA;
#1=MECHANICAL_DESIGN_GEOMETRIC_PRESENTATION_REPRESENTATION(' ',(#10,#11,#12,#13,#14,#15,#16,#17,#18,#19,#20,#21,#22,#23,#24,#25,#26,#27,#28,#29,#30,#31,#32,#33,#34,#35,#36,#37,#38,#39,#40,#41,#42,#43,#44,#45,#46,#47,#48),#6);
#2=PRODUCT_DEFINITION_CONTEXT('',#49,'design');
#3=APPLICATION_PROTOCOL_DEFINITION('INTERNATIONAL STANDARD','automotive_design',1994,#49);
#4=PRODUCT_CATEGORY_RELATIONSHIP('NONE','NONE',#50,#51);
#5=SHAPE_DEFINITION_REPRESENTATION(#52,#53);
#6= (GEOMETRIC_REPRESENTATION_CONTEXT(3)GLOBAL_UNCERTAINTY_ASSIGNED_CONTEXT((#56))GLOBAL_UNIT_ASSIGNED_CONTEXT((#58,#59,#60))REPRESENTATION_CONTEXT('NONE','WORKSPACE'));
#10=STYLED_ITEM('',(#62),#63);
#11=STYLED_ITEM('',(#64),#65);
#12=STYLED_ITEM('',(#66),#67);
#13=STYLED_ITEM('',(#68),#69);
#14=STYLED_ITEM('',(#70),#71);
#15=STYLED_ITEM('',(#72),#73);
#16=STYLED_ITEM('',(#74),#75);
#17=STYLED_ITEM('',(#76),#77);
#18=STYLED_ITEM('',(#78),#79);
#19=STYLED_ITEM('',(#80),#81);
#20=STYLED_ITEM('',(#82),#83);
#21=STYLED_ITEM('',(#84),#85);
#22=STYLED_ITEM('',(#86),#87);
#23=STYLED_ITEM('',(#88),#89);
#24=STYLED_ITEM('',(#90),#91);
#25=STYLED_ITEM('',(#92),#93);
#26=STYLED_ITEM('',(#94),#95);
#27=STYLED_ITEM('',(#96),#97);
#28=STYLED_ITEM('',(#98),#99);
#29=STYLED_ITEM('',(#100),#101);
#30=STYLED_ITEM('',(#102),#103);
#31=STYLED_ITEM('',(#104),#105);
#32=STYLED_ITEM('',(#106),#107);
#33=STYLED_ITEM('',(#108),#109);
#34=STYLED_ITEM('',(#110),#111);
#35=STYLED_ITEM('',(#112),#113);
#36=STYLED_ITEM('',(#114),#115);
#37=STYLED_ITEM('',(#116),#117);
#38=STYLED_ITEM('',(#118),#119);
#39=STYLED_ITEM('',(#120),#121);
#40=STYLED_ITEM('',(#122),#123);
#41=STYLED_ITEM('',(#124),#125);
#42=STYLED_ITEM('',(#126),#127);
#43=STYLED_ITEM('',(#128),#129);
#44=STYLED_ITEM('',(#130),#131);
#45=STYLED_ITEM('',(#132),#133);
#46=STYLED_ITEM('',(#134),#135);
#47=STYLED_ITEM('',(#136),#137);
#48=STYLED_ITEM('',(#138),#139);
#49=APPLICATION_CONTEXT(' ');
#50=PRODUCT_CATEGORY('part','NONE');
#51=PRODUCT_RELATED_PRODUCT_CATEGORY('detail',' ',(#140));
#52=PRODUCT_DEFINITION_SHAPE('NONE','NONE',#141);
#53=ADVANCED_BREP_SHAPE_REPRESENTATION('1',(#67,#142),#6);
#56=UNCERTAINTY_MEASURE_WITH_UNIT(LENGTH_MEASURE(1.0E-006),#58,'','');
#58= (CONVERSION_BASED_UNIT('MILLIMETRE',#145)LENGTH_UNIT()NAMED_UNIT(#148));
#59= (NAMED_UNIT(#150)PLANE_ANGLE_UNIT()SI_UNIT($,.RADIAN.));
#60= (NAMED_UNIT(#150)SOLID_ANGLE_UNIT()SI_UNIT($,.STERADIAN.));
#62=PRESENTATION_STYLE_ASSIGNMENT((#156));
#63=VERTEX_POINT('',#157);
#64=PRESENTATION_STYLE_ASSIGNMENT((#158));
#65=VERTEX_POINT('',#159);
#66=PRESENTATION_STYLE_ASSIGNMENT((#160));
#67=MANIFOLD_SOLID_BREP('1',#161);
#68=PRESENTATION_STYLE_ASSIGNMENT((#162));
#69=EDGE_CURVE('',#117,#131,#163,.T.);
#70=PRESENTATION_STYLE_ASSIGNMENT((#164));
#71=EDGE_CURVE('',#125,#75,#165,.T.);
#72=PRESENTATION_STYLE_ASSIGNMENT((#166));
#73=EDGE_CURVE('',#83,#127,#167,.T.);
#74=PRESENTATION_STYLE_ASSIGNMENT((#168));
#75=VERTEX_POINT('',#169);
#76=PRESENTATION_STYLE_ASSIGNMENT((#170));
#77=ADVANCED_FACE('',(#171),#172,.T.);
#78=PRESENTATION_STYLE_ASSIGNMENT((#173));
#79=VERTEX_POINT('',#174);
#80=PRESENTATION_STYLE_ASSIGNMENT((#175));
#81=EDGE_CURVE('',#65,#117,#176,.T.);
#82=PRESENTATION_STYLE_ASSIGNMENT((#177));
#83=VERTEX_POINT('',#178);
#84=PRESENTATION_STYLE_ASSIGNMENT((#179));
#85=EDGE_CURVE('',#117,#63,#180,.T.);
#86=PRESENTATION_STYLE_ASSIGNMENT((#181));
#87=EDGE_CURVE('',#83,#125,#182,.T.);
#88=PRESENTATION_STYLE_ASSIGNMENT((#183));
#89=EDGE_CURVE('',#131,#83,#184,.T.);
#90=PRESENTATION_STYLE_ASSIGNMENT((#185));
#91=ADVANCED_FACE('',(#186),#187,.F.);
#92=PRESENTATION_STYLE_ASSIGNMENT((#188));
#93=EDGE_CURVE('',#131,#109,#189,.T.);
#94=PRESENTATION_STYLE_ASSIGNMENT((#190));
#95=VERTEX_POINT('',#191);
#96=PRESENTATION_STYLE_ASSIGNMENT((#192));
#97=VERTEX_POINT('',#193);
#98=PRESENTATION_STYLE_ASSIGNMENT((#194));
#99=EDGE_CURVE('',#65,#97,#195,.T.);
#100=PRESENTATION_STYLE_ASSIGNMENT((#196));
#101=EDGE_CURVE('',#97,#63,#197,.T.);
#102=PRESENTATION_STYLE_ASSIGNMENT((#198));
#103=EDGE_CURVE('',#79,#95,#199,.T.);
#104=PRESENTATION_STYLE_ASSIGNMENT((#200));
#105=EDGE_CURVE('',#79,#65,#201,.T.);
#106=PRESENTATION_STYLE_ASSIGNMENT((#202));
#107=ADVANCED_FACE('',(#203),#204,.T.);
#108=PRESENTATION_STYLE_ASSIGNMENT((#205));
#109=VERTEX_POINT('',#206);
#110=PRESENTATION_STYLE_ASSIGNMENT((#207));
#111=EDGE_CURVE('',#63,#109,#208,.T.);
#112=PRESENTATION_STYLE_ASSIGNMENT((#209));
#113=ADVANCED_FACE('',(#210),#211,.T.);
#114=PRESENTATION_STYLE_ASSIGNMENT((#212));
#115=EDGE_CURVE('',#125,#79,#213,.T.);
#116=PRESENTATION_STYLE_ASSIGNMENT((#214));
#117=VERTEX_POINT('',#215);
#118=PRESENTATION_STYLE_ASSIGNMENT((#216));
#119=ADVANCED_FACE('',(#217),#218,.T.);
#120=PRESENTATION_STYLE_ASSIGNMENT((#219));
#121=ADVANCED_FACE('',(#220),#221,.T.);
#122=PRESENTATION_STYLE_ASSIGNMENT((#222));
#123=ADVANCED_FACE('',(#223),#224,.T.);
#124=PRESENTATION_STYLE_ASSIGNMENT((#225));
#125=VERTEX_POINT('',#226);
#126=PRESENTATION_STYLE_ASSIGNMENT((#227));
#127=VERTEX_POINT('',#228);
#128=PRESENTATION_STYLE_ASSIGNMENT((#229));
#129=ADVANCED_FACE('',(#230),#231,.T.);
#130=PRESENTATION_STYLE_ASSIGNMENT((#232));
#131=VERTEX_POINT('',#233);
#132=PRESENTATION_STYLE_ASSIGNMENT((#234));
#133=EDGE_CURVE('',#109,#127,#235,.T.);
#134=PRESENTATION_STYLE_ASSIGNMENT((#236));
#135=EDGE_CURVE('',#127,#75,#237,.T.);
#136=PRESENTATION_STYLE_ASSIGNMENT((#238));
#137=EDGE_CURVE('',#95,#97,#239,.T.);
#138=PRESENTATION_STYLE_ASSIGNMENT((#240));
#139=EDGE_CURVE('',#75,#95,#241,.T.);
#140=PRODUCT('1','1','PART-1-DESC',(#242));
#141=PRODUCT_DEFINITION('NONE','NONE',#243,#2);
#142=AXIS2_PLACEMENT_3D('',#244,#245,#246);
#145=LENGTH_MEASURE_WITH_UNIT(LENGTH_MEASURE(1.0),#247);
#148=DIMENSIONAL_EXPONENTS(1.0,0.0,0.0,0.0,0.0,0.0,0.0);
#150=DIMENSIONAL_EXPONENTS(0.0,0.0,0.0,0.0,0.0,0.0,0.0);
#156=POINT_STYLE(' ',#248,POSITIVE_LENGTH_MEASURE(1.0E-006),#249);
#157=CARTESIAN_POINT('',(17.3205080756888,0.0,-6.55));
#158=POINT_STYLE(' ',#250,POSITIVE_LENGTH_MEASURE(1.0E-006),#251);
#159=CARTESIAN_POINT('',(1.3856406460551,0.0,0.0));
#160=SURFACE_STYLE_USAGE(.BOTH.,#252);
#161=CLOSED_SHELL('',(#77,#123,#119,#113,#107,#129,#91,#121));
#162=CURVE_STYLE('',#253,POSITIVE_LENGTH_MEASURE(1.0E-006),#254);
#163=CIRCLE('',#255,0.800000000000001);
#164=CURVE_STYLE('',#256,POSITIVE_LENGTH_MEASURE(1.0E-006),#257);
#165=LINE('',#258,#259);
#166=CURVE_STYLE('',#260,POSITIVE_LENGTH_MEASURE(1.0E-006),#261);
#167=LINE('',#262,#263);
#168=POINT_STYLE(' ',#264,POSITIVE_LENGTH_MEASURE(1.0E-006),#265);
#169=CARTESIAN_POINT('',(8.66025403793099,14.99999999995,-6.55));
#170=SURFACE_STYLE_USAGE(.BOTH.,#266);
#171=FACE_OUTER_BOUND('',#267,.T.);
#172=CYLINDRICAL_SURFACE('',#268,0.800000000000001);
#173=POINT_STYLE(' ',#269,POSITIVE_LENGTH_MEASURE(1.0E-006),#270);
#174=CARTESIAN_POINT('',(0.692820323027551,1.2,0.0));
#175=CURVE_STYLE('',#271,POSITIVE_LENGTH_MEASURE(1.0E-006),#272);
#176=LINE('',#273,#274);
#177=POINT_STYLE(' ',#275,POSITIVE_LENGTH_MEASURE(1.0E-006),#276);
#178=CARTESIAN_POINT('',(10.0458946838995,15.0,0.0));
#179=CURVE_STYLE('',#277,POSITIVE_LENGTH_MEASURE(1.0E-006),#278);
#180=LINE('',#279,#280);
#181=CURVE_STYLE('',#281,POSITIVE_LENGTH_MEASURE(1.0E-006),#282);
#182=CIRCLE('',#283,0.800000000000002);
#183=CURVE_STYLE('',#284,POSITIVE_LENGTH_MEASURE(1.0E-006),#285);
#184=LINE('',#286,#287);
#185=SURFACE_STYLE_USAGE(.BOTH.,#288);
#186=FACE_OUTER_BOUND('',#289,.T.);
#187=PLANE('',#290);
#188=CURVE_STYLE('',#291,POSITIVE_LENGTH_MEASURE(1.0E-006),#292);
#189=LINE('',#293,#294);
#190=POINT_STYLE(' ',#295,POSITIVE_LENGTH_MEASURE(1.0E-006),#296);
#191=CARTESIAN_POINT('',(0.692820323027551,1.2,-6.55));
#192=POINT_STYLE(' ',#297,POSITIVE_LENGTH_MEASURE(1.0E-006),#298);
#193=CARTESIAN_POINT('',(1.3856406460551,0.0,-6.55));
#194=CURVE_STYLE('',#299,POSITIVE_LENGTH_MEASURE(1.0E-006),#300);
#195=LINE('',#301,#302);
#196=CURVE_STYLE('',#303,POSITIVE_LENGTH_MEASURE(1.0E-006),#304);
#197=LINE('',#305,#306);
#198=CURVE_STYLE('',#307,POSITIVE_LENGTH_MEASURE(1.0E-006),#308);
#199=LINE('',#309,#310);
#200=CURVE_STYLE('',#311,POSITIVE_LENGTH_MEASURE(1.0E-006),#312);
#201=CIRCLE('',#313,0.8);
#202=SURFACE_STYLE_USAGE(.BOTH.,#314);
#203=FACE_OUTER_BOUND('',#315,.T.);
#204=CYLINDRICAL_SURFACE('',#316,0.8);
#205=POINT_STYLE(' ',#317,POSITIVE_LENGTH_MEASURE(1.0E-006),#318);
#206=CARTESIAN_POINT('',(18.0133283986297,1.19999999995,-6.55));
#207=CURVE_STYLE('',#319,POSITIVE_LENGTH_MEASURE(1.0E-006),#320);
#208=CIRCLE('',#321,0.800000000000001);
#209=SURFACE_STYLE_USAGE(.BOTH.,#322);
#210=FACE_OUTER_BOUND('',#323,.T.);
#211=PLANE('',#324);
#212=CURVE_STYLE('',#325,POSITIVE_LENGTH_MEASURE(1.0E-006),#326);
#213=LINE('',#327,#328);
#214=POINT_STYLE(' ',#329,POSITIVE_LENGTH_MEASURE(1.0E-006),#330);
#215=CARTESIAN_POINT('',(17.3205080756888,0.0,0.0));
#216=SURFACE_STYLE_USAGE(.BOTH.,#331);
#217=FACE_OUTER_BOUND('',#332,.T.);
#218=CYLINDRICAL_SURFACE('',#333,0.800000000000002);
#219=SURFACE_STYLE_USAGE(.BOTH.,#334);
#220=FACE_OUTER_BOUND('',#335,.T.);
#221=PLANE('',#336);
#222=SURFACE_STYLE_USAGE(.BOTH.,#337);
#223=FACE_OUTER_BOUND('',#338,.T.);
#224=PLANE('',#339);
#225=POINT_STYLE(' ',#340,POSITIVE_LENGTH_MEASURE(1.0E-006),#341);
#226=CARTESIAN_POINT('',(8.66025403793099,14.99999999995,0.0));
#227=POINT_STYLE(' ',#342,POSITIVE_LENGTH_MEASURE(1.0E-006),#343);
#228=CARTESIAN_POINT('',(10.0458946838995,15.0,-6.55));
#229=SURFACE_STYLE_USAGE(.BOTH.,#344);
#230=FACE_OUTER_BOUND('',#345,.T.);
#231=PLANE('',#346);
#232=POINT_STYLE(' ',#347,POSITIVE_LENGTH_MEASURE(1.0E-006),#348);
#233=CARTESIAN_POINT('',(18.0133283986297,1.19999999995,0.0));
#234=CURVE_STYLE('',#349,POSITIVE_LENGTH_MEASURE(1.0E-006),#350);
#235=LINE('',#351,#352);
#236=CURVE_STYLE('',#353,POSITIVE_LENGTH_MEASURE(1.0E-006),#354);
#237=CIRCLE('',#355,0.800000000000002);
#238=CURVE_STYLE('',#356,POSITIVE_LENGTH_MEASURE(1.0E-006),#357);
#239=CIRCLE('',#358,0.8);
#240=CURVE_STYLE('',#359,POSITIVE_LENGTH_MEASURE(1.0E-006),#360);
#241=LINE('',#361,#362);
#242=PRODUCT_CONTEXT('',#49,'mechanical');
#243=PRODUCT_DEFINITION_FORMATION_WITH_SPECIFIED_SOURCE(' ','NONE',#140,.NOT_KNOWN.);
#244=CARTESIAN_POINT('',(0.0,0.0,0.0));
#245=DIRECTION('',(0.0,0.0,1.0));
#246=DIRECTION('',(1.0,0.0,0.0));
#247= (NAMED_UNIT(#148)LENGTH_UNIT()SI_UNIT(.MILLI.,.METRE.));
#248=PRE_DEFINED_MARKER('');
#249=COLOUR_RGB('',0.800000011920929,0.800000011920929,0.800000011920929);
#250=PRE_DEFINED_MARKER('');
#251=COLOUR_RGB('',0.800000011920929,0.800000011920929,0.800000011920929);
#252=SURFACE_SIDE_STYLE('',(#364));
#253=DRAUGHTING_PRE_DEFINED_CURVE_FONT('continuous');
#254=COLOUR_RGB('',0.800000011920929,0.800000011920929,0.800000011920929);
#255=AXIS2_PLACEMENT_3D('',#365,#366,#367);
#256=DRAUGHTING_PRE_DEFINED_CURVE_FONT('continuous');
#257=COLOUR_RGB('',0.800000011920929,0.800000011920929,0.800000011920929);
#258=CARTESIAN_POINT('',(8.66025403793099,14.99999999995,0.0));
#259=VECTOR('',#368,1.0);
#260=DRAUGHTING_PRE_DEFINED_CURVE_FONT('continuous');
#261=COLOUR_RGB('',0.800000011920929,0.800000011920929,0.800000011920929);
#262=CARTESIAN_POINT('',(10.0458946838995,15.0,0.0));
#263=VECTOR('',#369,1.0);
#264=PRE_DEFINED_MARKER('');
#265=COLOUR_RGB('',0.800000011920929,0.800000011920929,0.800000011920929);
#266=SURFACE_SIDE_STYLE('',(#370));
#267=EDGE_LOOP('',(#371,#372,#373,#374));
#268=AXIS2_PLACEMENT_3D('',#375,#376,#377);
#269=PRE_DEFINED_MARKER('');
#270=COLOUR_RGB('',0.800000011920929,0.800000011920929,0.800000011920929);
#271=DRAUGHTING_PRE_DEFINED_CURVE_FONT('continuous');
#272=COLOUR_RGB('',0.800000011920929,0.800000011920929,0.800000011920929);
#273=CARTESIAN_POINT('',(1.3856406460551,0.0,0.0));
#274=VECTOR('',#378,1.0);
#275=PRE_DEFINED_MARKER('');
#276=COLOUR_RGB('',0.800000011920929,0.800000011920929,0.800000011920929);
#277=DRAUGHTING_PRE_DEFINED_CURVE_FONT('continuous');
#278=COLOUR_RGB('',0.800000011920929,0.800000011920929,0.800000011920929);
#279=CARTESIAN_POINT('',(17.3205080756888,0.0,0.0));
#280=VECTOR('',#379,1.0);
#281=DRAUGHTING_PRE_DEFINED_CURVE_FONT('continuous');
#282=COLOUR_RGB('',0.800000011920929,0.800000011920929,0.800000011920929);
#283=AXIS2_PLACEMENT_3D('',#380,#381,#382);
#284=DRAUGHTING_PRE_DEFINED_CURVE_FONT('continuous');
#285=COLOUR_RGB('',0.800000011920929,0.800000011920929,0.800000011920929);
#286=CARTESIAN_POINT('',(18.0133283987163,1.2,0.0));
#287=VECTOR('',#383,1.0);
#288=SURFACE_SIDE_STYLE('',(#384));
#289=EDGE_LOOP('',(#385,#386,#387,#388,#389,#390));
#290=AXIS2_PLACEMENT_3D('',#391,#392,#393);
#291=DRAUGHTING_PRE_DEFINED_CURVE_FONT('continuous');
#292=COLOUR_RGB('',0.800000011920929,0.800000011920929,0.800000011920929);
#293=CARTESIAN_POINT('',(18.0133283986297,1.19999999995,0.0));
#294=VECTOR('',#394,1.0);
#295=PRE_DEFINED_MARKER('');
#296=COLOUR_RGB('',0.800000011920929,0.800000011920929,0.800000011920929);
#297=PRE_DEFINED_MARKER('');
#298=COLOUR_RGB('',0.800000011920929,0.800000011920929,0.800000011920929);
#299=DRAUGHTING_PRE_DEFINED_CURVE_FONT('continuous');
#300=COLOUR_RGB('',0.800000011920929,0.800000011920929,0.800000011920929);
#301=CARTESIAN_POINT('',(1.3856406460551,0.0,0.0));
#302=VECTOR('',#395,1.0);
#303=DRAUGHTING_PRE_DEFINED_CURVE_FONT('continuous');
#304=COLOUR_RGB('',0.800000011920929,0.800000011920929,0.800000011920929);
#305=CARTESIAN_POINT('',(1.3856406460551,0.0,-6.55));
#306=VECTOR('',#396,1.0);
#307=DRAUGHTING_PRE_DEFINED_CURVE_FONT('continuous');
#308=COLOUR_RGB('',0.800000011920929,0.800000011920929,0.800000011920929);
#309=CARTESIAN_POINT('',(0.692820323027551,1.2,0.0));
#310=VECTOR('',#397,1.0);
#311=DRAUGHTING_PRE_DEFINED_CURVE_FONT('continuous');
#312=COLOUR_RGB('',0.800000011920929,0.800000011920929,0.800000011920929);
#313=AXIS2_PLACEMENT_3D('',#398,#399,#400);
#314=SURFACE_SIDE_STYLE('',(#401));
#315=EDGE_LOOP('',(#402,#403,#404,#405));
#316=AXIS2_PLACEMENT_3D('',#406,#407,#408);
#317=PRE_DEFINED_MARKER('');
#318=COLOUR_RGB('',0.800000011920929,0.800000011920929,0.800000011920929);
#319=DRAUGHTING_PRE_DEFINED_CURVE_FONT('continuous');
#320=COLOUR_RGB('',0.800000011920929,0.800000011920929,0.800000011920929);
#321=AXIS2_PLACEMENT_3D('',#409,#410,#411);
#322=SURFACE_SIDE_STYLE('',(#412));
#323=EDGE_LOOP('',(#413,#414,#415,#416));
#324=AXIS2_PLACEMENT_3D('',#417,#418,#419);
#325=DRAUGHTING_PRE_DEFINED_CURVE_FONT('continuous');
#326=COLOUR_RGB('',0.800000011920929,0.800000011920929,0.800000011920929);
#327=CARTESIAN_POINT('',(8.66025403784439,15.0,0.0));
#328=VECTOR('',#420,1.0);
#329=PRE_DEFINED_MARKER('');
#330=COLOUR_RGB('',0.800000011920929,0.800000011920929,0.800000011920929);
#331=SURFACE_SIDE_STYLE('',(#421));
#332=EDGE_LOOP('',(#422,#423,#424,#425));
#333=AXIS2_PLACEMENT_3D('',#426,#427,#428);
#334=SURFACE_SIDE_STYLE('',(#429));
#335=EDGE_LOOP('',(#430,#431,#432,#433,#434,#435));
#336=AXIS2_PLACEMENT_3D('',#436,#437,#438);
#337=SURFACE_SIDE_STYLE('',(#439));
#338=EDGE_LOOP('',(#440,#441,#442,#443));
#339=AXIS2_PLACEMENT_3D('',#444,#445,#446);
#340=PRE_DEFINED_MARKER('');
#341=COLOUR_RGB('',0.800000011920929,0.800000011920929,0.800000011920929);
#342=PRE_DEFINED_MARKER('');
#343=COLOUR_RGB('',0.800000011920929,0.800000011920929,0.800000011920929);
#344=SURFACE_SIDE_STYLE('',(#447));
#345=EDGE_LOOP('',(#448,#449,#450,#451));
#346=AXIS2_PLACEMENT_3D('',#452,#453,#454);
#347=PRE_DEFINED_MARKER('');
#348=COLOUR_RGB('',0.800000011920929,0.800000011920929,0.800000011920929);
#349=DRAUGHTING_PRE_DEFINED_CURVE_FONT('continuous');
#350=COLOUR_RGB('',0.800000011920929,0.800000011920929,0.800000011920929);
#351=CARTESIAN_POINT('',(18.0133283987163,1.2,-6.55));
#352=VECTOR('',#455,1.0);
#353=DRAUGHTING_PRE_DEFINED_CURVE_FONT('continuous');
#354=COLOUR_RGB('',0.800000011920929,0.800000011920929,0.800000011920929);
#355=AXIS2_PLACEMENT_3D('',#456,#457,#458);
#356=DRAUGHTING_PRE_DEFINED_CURVE_FONT('continuous');
#357=COLOUR_RGB('',0.800000011920929,0.800000011920929,0.800000011920929);
#358=AXIS2_PLACEMENT_3D('',#459,#460,#461);
#359=DRAUGHTING_PRE_DEFINED_CURVE_FONT('continuous');
#360=COLOUR_RGB('',0.800000011920929,0.800000011920929,0.800000011920929);
#361=CARTESIAN_POINT('',(8.66025403784439,15.0,-6.55));
#362=VECTOR('',#462,1.0);
#364=SURFACE_STYLE_FILL_AREA(#463);
#365=CARTESIAN_POINT('',(17.3205080755156,0.800000000100001,0.0));
#366=DIRECTION('',(0.0,0.0,1.0));
#367=DIRECTION('',(2.16506812478201E-010,-1.0,0.0));
#368=DIRECTION('',(0.0,0.0,-1.0));
#369=DIRECTION('',(0.0,0.0,-1.0));
#370=SURFACE_STYLE_FILL_AREA(#464);
#371=ORIENTED_EDGE('',*,*,#111,.T.);
#372=ORIENTED_EDGE('',*,*,#93,.F.);
#373=ORIENTED_EDGE('',*,*,#69,.F.);
#374=ORIENTED_EDGE('',*,*,#85,.T.);
#375=CARTESIAN_POINT('',(17.3205080755156,0.800000000100001,0.0));
#376=DIRECTION('',(-0.0,-0.0,1.0));
#377=DIRECTION('',(2.16506812478201E-010,-1.0,0.0));
#378=DIRECTION('',(1.0,0.0,0.0));
#379=DIRECTION('',(0.0,0.0,-1.0));
#380=CARTESIAN_POINT('',(9.35307436087194,14.5999999998,0.0));
#381=DIRECTION('',(0.0,-0.0,1.0));
#382=DIRECTION('',(0.866025403676183,0.500000000187505,0.0));
#383=DIRECTION('',(-0.5,0.866025403784439,0.0));
#384=SURFACE_STYLE_FILL_AREA(#465);
#385=ORIENTED_EDGE('',*,*,#111,.F.);
#386=ORIENTED_EDGE('',*,*,#101,.F.);
#387=ORIENTED_EDGE('',*,*,#137,.F.);
#388=ORIENTED_EDGE('',*,*,#139,.F.);
#389=ORIENTED_EDGE('',*,*,#135,.F.);
#390=ORIENTED_EDGE('',*,*,#133,.F.);
#391=CARTESIAN_POINT('',(9.35307436087194,5.4,-6.55));
#392=DIRECTION('',(0.0,0.0,1.0));
#393=DIRECTION('',(1.0,0.0,0.0));
#394=DIRECTION('',(0.0,0.0,-1.0));
#395=DIRECTION('',(0.0,0.0,-1.0));
#396=DIRECTION('',(1.0,0.0,0.0));
#397=DIRECTION('',(0.0,0.0,-1.0));
#398=CARTESIAN_POINT('',(1.38564064622831,0.8000000001,0.0));
#399=DIRECTION('',(0.0,0.0,1.0));
#400=DIRECTION('',(-0.866025403892692,0.499999999812499,0.0));
#401=SURFACE_STYLE_FILL_AREA(#466);
#402=ORIENTED_EDGE('',*,*,#137,.T.);
#403=ORIENTED_EDGE('',*,*,#99,.F.);
#404=ORIENTED_EDGE('',*,*,#105,.F.);
#405=ORIENTED_EDGE('',*,*,#103,.T.);
#406=CARTESIAN_POINT('',(1.38564064622831,0.8000000001,0.0));
#407=DIRECTION('',(-0.0,-0.0,1.0));
#408=DIRECTION('',(-0.866025403892692,0.499999999812499,0.0));
#409=CARTESIAN_POINT('',(17.3205080755156,0.800000000100001,-6.55));
#410=DIRECTION('',(0.0,0.0,1.0));
#411=DIRECTION('',(2.16506812478201E-010,-1.0,0.0));
#412=SURFACE_STYLE_FILL_AREA(#467);
#413=ORIENTED_EDGE('',*,*,#139,.T.);
#414=ORIENTED_EDGE('',*,*,#103,.F.);
#415=ORIENTED_EDGE('',*,*,#115,.F.);
#416=ORIENTED_EDGE('',*,*,#71,.T.);
#417=CARTESIAN_POINT('',(8.66025403793099,14.99999999995,0.0));
#418=DIRECTION('',(-0.866025403784439,0.5,0.0));
#419=DIRECTION('',(0.5,0.866025403784439,-0.0));
#420=DIRECTION('',(-0.5,-0.866025403784439,0.0));
#421=SURFACE_STYLE_FILL_AREA(#468);
#422=ORIENTED_EDGE('',*,*,#135,.T.);
#423=ORIENTED_EDGE('',*,*,#71,.F.);
#424=ORIENTED_EDGE('',*,*,#87,.F.);
#425=ORIENTED_EDGE('',*,*,#73,.T.);
#426=CARTESIAN_POINT('',(9.35307436087194,14.5999999998,0.0));
#427=DIRECTION('',(-0.0,-0.0,1.0));
#428=DIRECTION('',(0.866025403676183,0.500000000187505,0.0));
#429=SURFACE_STYLE_FILL_AREA(#469);
#430=ORIENTED_EDGE('',*,*,#81,.T.);
#431=ORIENTED_EDGE('',*,*,#69,.T.);
#432=ORIENTED_EDGE('',*,*,#89,.T.);
#433=ORIENTED_EDGE('',*,*,#87,.T.);
#434=ORIENTED_EDGE('',*,*,#115,.T.);
#435=ORIENTED_EDGE('',*,*,#105,.T.);
#436=CARTESIAN_POINT('',(9.35307436087194,5.4,0.0));
#437=DIRECTION('',(0.0,0.0,1.0));
#438=DIRECTION('',(1.0,0.0,0.0));
#439=SURFACE_STYLE_FILL_AREA(#470);
#440=ORIENTED_EDGE('',*,*,#133,.T.);
#441=ORIENTED_EDGE('',*,*,#73,.F.);
#442=ORIENTED_EDGE('',*,*,#89,.F.);
#443=ORIENTED_EDGE('',*,*,#93,.T.);
#444=CARTESIAN_POINT('',(18.0133283986297,1.19999999995,0.0));
#445=DIRECTION('',(0.866025403784439,0.5,0.0));
#446=DIRECTION('',(0.5,-0.866025403784439,-0.0));
#447=SURFACE_STYLE_FILL_AREA(#471);
#448=ORIENTED_EDGE('',*,*,#101,.T.);
#449=ORIENTED_EDGE('',*,*,#85,.F.);
#450=ORIENTED_EDGE('',*,*,#81,.F.);
#451=ORIENTED_EDGE('',*,*,#99,.T.);
#452=CARTESIAN_POINT('',(1.3856406460551,0.0,0.0));
#453=DIRECTION('',(0.0,-1.0,-0.0));
#454=DIRECTION('',(-1.0,0.0,-0.0));
#455=DIRECTION('',(-0.5,0.866025403784439,0.0));
#456=CARTESIAN_POINT('',(9.35307436087194,14.5999999998,-6.55));
#457=DIRECTION('',(0.0,-0.0,1.0));
#458=DIRECTION('',(0.866025403676183,0.500000000187505,0.0));
#459=CARTESIAN_POINT('',(1.38564064622831,0.8000000001,-6.55));
#460=DIRECTION('',(0.0,0.0,1.0));
#461=DIRECTION('',(-0.866025403892692,0.499999999812499,0.0));
#462=DIRECTION('',(-0.5,-0.866025403784439,0.0));
#463=FILL_AREA_STYLE('',(#472));
#464=FILL_AREA_STYLE('',(#473));
#465=FILL_AREA_STYLE('',(#474));
#466=FILL_AREA_STYLE('',(#475));
#467=FILL_AREA_STYLE('',(#476));
#468=FILL_AREA_STYLE('',(#477));
#469=FILL_AREA_STYLE('',(#478));
#470=FILL_AREA_STYLE('',(#479));
#471=FILL_AREA_STYLE('',(#480));
#472=FILL_AREA_STYLE_COLOUR('',#481);
#473=FILL_AREA_STYLE_COLOUR('',#482);
#474=FILL_AREA_STYLE_COLOUR('',#483);
#475=FILL_AREA_STYLE_COLOUR('',#484);
#476=FILL_AREA_STYLE_COLOUR('',#485);
#477=FILL_AREA_STYLE_COLOUR('',#486);
#478=FILL_AREA_STYLE_COLOUR('',#487);
#479=FILL_AREA_STYLE_COLOUR('',#488);
#480=FILL_AREA_STYLE_COLOUR('',#489);
#481=COLOUR_RGB('',0.800000011920929,0.800000011920929,0.800000011920929);
#482=COLOUR_RGB('',0.800000011920929,0.800000011920929,0.800000011920929);
#483=COLOUR_RGB('',0.800000011920929,0.800000011920929,0.800000011920929);
#484=COLOUR_RGB('',0.800000011920929,0.800000011920929,0.800000011920929);
#485=COLOUR_RGB('',0.800000011920929,0.800000011920929,0.800000011920929);
#486=COLOUR_RGB('',0.800000011920929,0.800000011920929,0.800000011920929);
#487=COLOUR_RGB('',0.800000011920929,0.800000011920929,0.800000011920929);
#488=COLOUR_RGB('',0.800000011920929,0.800000011920929,0.800000011920929);
#489=COLOUR_RGB('',0.800000011920929,0.800000011920929,0.800000011920929);
#490=AXIS2_PLACEMENT_3D('PCS',#491,#492,#493);
#491=CARTESIAN_POINT('',(0.0,0.0,0.0));
#492=DIRECTION('',(0.0,0.0,1.0));
#493=DIRECTION('',(1.0,0.0,0.0));
#494=AXIS2_PLACEMENT_3D('MCS',#495,#496,#497);
#495=CARTESIAN_POINT('',(9.35307436,5.4,0.0));
#496=DIRECTION('',(0.0,0.0,1.0));
#497=DIRECTION('',(1.0,0.0,0.0));
#498=CONSTRUCTIVE_GEOMETRY_REPRESENTATION_RELATIONSHIP('coordinate systems',$,#53,#499);
#499=CONSTRUCTIVE_GEOMETRY_REPRESENTATION('coordinate systems',(#490,#494),#6);
ENDSEC;
END-ISO-10303-21;
