ISO-10303-21;
HEADER;
FILE_DESCRIPTION(('no description'),'unknown implementation level');
FILE_NAME('solidDCTo3Bh_6hhDeK7qjTnN2NLhsTE_1.STP','  ',('CIMSOURCE GmbH'),('CADClick - KiM GmbH - www.kimweb.de'),'unknown preprocess','ACIS','unknown authorization');
FILE_SCHEMA(('automotive_design'));
ENDSEC;
DATA;
#1=MECHANICAL_DESIGN_GEOMETRIC_PRESENTATION_REPRESENTATION(' ',(#10,#11,#12,#13,#14,#15,#16,#17,#18,#19,#20,#21,#22,#23,#24,#25,#26,#27,#28,#29,#30,#31,#32,#33,#34,#35,#36,#37,#38,#39,#40,#41,#42,#43,#44,#45,#46,#47,#48,#49,#50,#51,#52,#53,#54,#55,#56,#57,#58,#59,#60),#6);
#2=PRODUCT_DEFINITION_CONTEXT('',#61,'design');
#3=APPLICATION_PROTOCOL_DEFINITION('INTERNATIONAL STANDARD','automotive_design',1994,#61);
#4=PRODUCT_CATEGORY_RELATIONSHIP('NONE','NONE',#62,#63);
#5=SHAPE_DEFINITION_REPRESENTATION(#64,#65);
#6= (GEOMETRIC_REPRESENTATION_CONTEXT(3)GLOBAL_UNCERTAINTY_ASSIGNED_CONTEXT((#68))GLOBAL_UNIT_ASSIGNED_CONTEXT((#70,#71,#72))REPRESENTATION_CONTEXT('NONE','WORKSPACE'));
#10=STYLED_ITEM('',(#74),#75);
#11=STYLED_ITEM('',(#76),#77);
#12=STYLED_ITEM('',(#78),#79);
#13=STYLED_ITEM('',(#80),#81);
#14=STYLED_ITEM('',(#82),#83);
#15=STYLED_ITEM('',(#84),#85);
#16=STYLED_ITEM('',(#86),#87);
#17=STYLED_ITEM('',(#88),#89);
#18=STYLED_ITEM('',(#90),#91);
#19=STYLED_ITEM('',(#92),#93);
#20=STYLED_ITEM('',(#94),#95);
#21=STYLED_ITEM('',(#96),#97);
#22=STYLED_ITEM('',(#98),#99);
#23=STYLED_ITEM('',(#100),#101);
#24=STYLED_ITEM('',(#102),#103);
#25=STYLED_ITEM('',(#104),#105);
#26=STYLED_ITEM('',(#106),#107);
#27=STYLED_ITEM('',(#108),#109);
#28=STYLED_ITEM('',(#110),#111);
#29=STYLED_ITEM('',(#112),#113);
#30=STYLED_ITEM('',(#114),#115);
#31=STYLED_ITEM('',(#116),#117);
#32=STYLED_ITEM('',(#118),#119);
#33=STYLED_ITEM('',(#120),#121);
#34=STYLED_ITEM('',(#122),#123);
#35=STYLED_ITEM('',(#124),#125);
#36=STYLED_ITEM('',(#126),#127);
#37=STYLED_ITEM('',(#128),#129);
#38=STYLED_ITEM('',(#130),#131);
#39=STYLED_ITEM('',(#132),#133);
#40=STYLED_ITEM('',(#134),#135);
#41=STYLED_ITEM('',(#136),#137);
#42=STYLED_ITEM('',(#138),#139);
#43=STYLED_ITEM('',(#140),#141);
#44=STYLED_ITEM('',(#142),#143);
#45=STYLED_ITEM('',(#144),#145);
#46=STYLED_ITEM('',(#146),#147);
#47=STYLED_ITEM('',(#148),#149);
#48=STYLED_ITEM('',(#150),#151);
#49=STYLED_ITEM('',(#152),#153);
#50=STYLED_ITEM('',(#154),#155);
#51=STYLED_ITEM('',(#156),#157);
#52=STYLED_ITEM('',(#158),#159);
#53=STYLED_ITEM('',(#160),#161);
#54=STYLED_ITEM('',(#162),#163);
#55=STYLED_ITEM('',(#164),#165);
#56=STYLED_ITEM('',(#166),#167);
#57=STYLED_ITEM('',(#168),#169);
#58=STYLED_ITEM('',(#170),#171);
#59=STYLED_ITEM('',(#172),#173);
#60=STYLED_ITEM('',(#174),#175);
#61=APPLICATION_CONTEXT(' ');
#62=PRODUCT_CATEGORY('part','NONE');
#63=PRODUCT_RELATED_PRODUCT_CATEGORY('detail',' ',(#176));
#64=PRODUCT_DEFINITION_SHAPE('NONE','NONE',#177);
#65=ADVANCED_BREP_SHAPE_REPRESENTATION('1',(#119,#178),#6);
#68=UNCERTAINTY_MEASURE_WITH_UNIT(LENGTH_MEASURE(1.0E-006),#70,'','');
#70= (CONVERSION_BASED_UNIT('MILLIMETRE',#181)LENGTH_UNIT()NAMED_UNIT(#184));
#71= (NAMED_UNIT(#186)PLANE_ANGLE_UNIT()SI_UNIT($,.RADIAN.));
#72= (NAMED_UNIT(#186)SOLID_ANGLE_UNIT()SI_UNIT($,.STERADIAN.));
#74=PRESENTATION_STYLE_ASSIGNMENT((#192));
#75=EDGE_CURVE('',#103,#131,#193,.T.);
#76=PRESENTATION_STYLE_ASSIGNMENT((#194));
#77=EDGE_CURVE('',#131,#109,#195,.T.);
#78=PRESENTATION_STYLE_ASSIGNMENT((#196));
#79=EDGE_CURVE('',#151,#97,#197,.T.);
#80=PRESENTATION_STYLE_ASSIGNMENT((#198));
#81=EDGE_CURVE('',#117,#159,#199,.T.);
#82=PRESENTATION_STYLE_ASSIGNMENT((#200));
#83=ADVANCED_FACE('',(#201),#202,.T.);
#84=PRESENTATION_STYLE_ASSIGNMENT((#203));
#85=EDGE_CURVE('',#167,#137,#204,.T.);
#86=PRESENTATION_STYLE_ASSIGNMENT((#205));
#87=EDGE_CURVE('',#157,#143,#206,.T.);
#88=PRESENTATION_STYLE_ASSIGNMENT((#207));
#89=VERTEX_POINT('',#208);
#90=PRESENTATION_STYLE_ASSIGNMENT((#209));
#91=EDGE_CURVE('',#89,#143,#210,.T.);
#92=PRESENTATION_STYLE_ASSIGNMENT((#211));
#93=EDGE_CURVE('',#97,#153,#212,.T.);
#94=PRESENTATION_STYLE_ASSIGNMENT((#213));
#95=EDGE_CURVE('',#159,#89,#214,.T.);
#96=PRESENTATION_STYLE_ASSIGNMENT((#215));
#97=VERTEX_POINT('',#216);
#98=PRESENTATION_STYLE_ASSIGNMENT((#217));
#99=EDGE_CURVE('',#109,#151,#218,.T.);
#100=PRESENTATION_STYLE_ASSIGNMENT((#219));
#101=ADVANCED_FACE('',(#220),#221,.F.);
#102=PRESENTATION_STYLE_ASSIGNMENT((#222));
#103=VERTEX_POINT('',#223);
#104=PRESENTATION_STYLE_ASSIGNMENT((#224));
#105=EDGE_CURVE('',#143,#167,#225,.T.);
#106=PRESENTATION_STYLE_ASSIGNMENT((#226));
#107=EDGE_CURVE('',#89,#103,#227,.T.);
#108=PRESENTATION_STYLE_ASSIGNMENT((#228));
#109=VERTEX_POINT('',#229);
#110=PRESENTATION_STYLE_ASSIGNMENT((#230));
#111=ADVANCED_FACE('',(#231),#232,.T.);
#112=PRESENTATION_STYLE_ASSIGNMENT((#233));
#113=EDGE_CURVE('',#137,#147,#234,.T.);
#114=PRESENTATION_STYLE_ASSIGNMENT((#235));
#115=ADVANCED_FACE('',(#236),#237,.T.);
#116=PRESENTATION_STYLE_ASSIGNMENT((#238));
#117=VERTEX_POINT('',#239);
#118=PRESENTATION_STYLE_ASSIGNMENT((#240));
#119=MANIFOLD_SOLID_BREP('1',#241);
#120=PRESENTATION_STYLE_ASSIGNMENT((#242));
#121=EDGE_CURVE('',#109,#147,#243,.T.);
#122=PRESENTATION_STYLE_ASSIGNMENT((#244));
#123=VERTEX_POINT('',#245);
#124=PRESENTATION_STYLE_ASSIGNMENT((#246));
#125=EDGE_CURVE('',#123,#157,#247,.T.);
#126=PRESENTATION_STYLE_ASSIGNMENT((#248));
#127=EDGE_CURVE('',#103,#167,#249,.T.);
#128=PRESENTATION_STYLE_ASSIGNMENT((#250));
#129=EDGE_CURVE('',#117,#123,#251,.T.);
#130=PRESENTATION_STYLE_ASSIGNMENT((#252));
#131=VERTEX_POINT('',#253);
#132=PRESENTATION_STYLE_ASSIGNMENT((#254));
#133=VERTEX_POINT('',#255);
#134=PRESENTATION_STYLE_ASSIGNMENT((#256));
#135=ADVANCED_FACE('',(#257),#258,.T.);
#136=PRESENTATION_STYLE_ASSIGNMENT((#259));
#137=VERTEX_POINT('',#260);
#138=PRESENTATION_STYLE_ASSIGNMENT((#261));
#139=EDGE_CURVE('',#153,#123,#262,.T.);
#140=PRESENTATION_STYLE_ASSIGNMENT((#263));
#141=EDGE_CURVE('',#133,#153,#264,.T.);
#142=PRESENTATION_STYLE_ASSIGNMENT((#265));
#143=VERTEX_POINT('',#266);
#144=PRESENTATION_STYLE_ASSIGNMENT((#267));
#145=ADVANCED_FACE('',(#268),#269,.T.);
#146=PRESENTATION_STYLE_ASSIGNMENT((#270));
#147=VERTEX_POINT('',#271);
#148=PRESENTATION_STYLE_ASSIGNMENT((#272));
#149=ADVANCED_FACE('',(#273),#274,.T.);
#150=PRESENTATION_STYLE_ASSIGNMENT((#275));
#151=VERTEX_POINT('',#276);
#152=PRESENTATION_STYLE_ASSIGNMENT((#277));
#153=VERTEX_POINT('',#278);
#154=PRESENTATION_STYLE_ASSIGNMENT((#279));
#155=EDGE_CURVE('',#131,#137,#280,.T.);
#156=PRESENTATION_STYLE_ASSIGNMENT((#281));
#157=VERTEX_POINT('',#282);
#158=PRESENTATION_STYLE_ASSIGNMENT((#283));
#159=VERTEX_POINT('',#284);
#160=PRESENTATION_STYLE_ASSIGNMENT((#285));
#161=EDGE_CURVE('',#159,#157,#286,.T.);
#162=PRESENTATION_STYLE_ASSIGNMENT((#287));
#163=ADVANCED_FACE('',(#288),#289,.T.);
#164=PRESENTATION_STYLE_ASSIGNMENT((#290));
#165=ADVANCED_FACE('',(#291),#292,.T.);
#166=PRESENTATION_STYLE_ASSIGNMENT((#293));
#167=VERTEX_POINT('',#294);
#168=PRESENTATION_STYLE_ASSIGNMENT((#295));
#169=ADVANCED_FACE('',(#296),#297,.T.);
#170=PRESENTATION_STYLE_ASSIGNMENT((#298));
#171=EDGE_CURVE('',#133,#117,#299,.T.);
#172=PRESENTATION_STYLE_ASSIGNMENT((#300));
#173=EDGE_CURVE('',#147,#97,#301,.T.);
#174=PRESENTATION_STYLE_ASSIGNMENT((#302));
#175=EDGE_CURVE('',#151,#133,#303,.T.);
#176=PRODUCT('1','1','PART-1-DESC',(#304));
#177=PRODUCT_DEFINITION('NONE','NONE',#305,#2);
#178=AXIS2_PLACEMENT_3D('',#306,#307,#308);
#181=LENGTH_MEASURE_WITH_UNIT(LENGTH_MEASURE(1.0),#309);
#184=DIMENSIONAL_EXPONENTS(1.0,0.0,0.0,0.0,0.0,0.0,0.0);
#186=DIMENSIONAL_EXPONENTS(0.0,0.0,0.0,0.0,0.0,0.0,0.0);
#192=CURVE_STYLE('',#310,POSITIVE_LENGTH_MEASURE(1.0E-006),#311);
#193=CIRCLE('',#312,0.4);
#194=CURVE_STYLE('',#313,POSITIVE_LENGTH_MEASURE(1.0E-006),#314);
#195=LINE('',#315,#316);
#196=CURVE_STYLE('',#317,POSITIVE_LENGTH_MEASURE(1.0E-006),#318);
#197=LINE('',#319,#320);
#198=CURVE_STYLE('',#321,POSITIVE_LENGTH_MEASURE(1.0E-006),#322);
#199=LINE('',#323,#324);
#200=SURFACE_STYLE_USAGE(.BOTH.,#325);
#201=FACE_OUTER_BOUND('',#326,.T.);
#202=PLANE('',#327);
#203=CURVE_STYLE('',#328,POSITIVE_LENGTH_MEASURE(1.0E-006),#329);
#204=CIRCLE('',#330,0.12987396601361);
#205=CURVE_STYLE('',#331,POSITIVE_LENGTH_MEASURE(1.0E-006),#332);
#206=CIRCLE('',#333,0.129873966013611);
#207=POINT_STYLE(' ',#334,POSITIVE_LENGTH_MEASURE(1.0E-006),#335);
#208=CARTESIAN_POINT('',(0.4,0.0,0.0));
#209=CURVE_STYLE('',#336,POSITIVE_LENGTH_MEASURE(1.0E-006),#337);
#210=LINE('',#338,#339);
#211=CURVE_STYLE('',#340,POSITIVE_LENGTH_MEASURE(1.0E-006),#341);
#212=LINE('',#342,#343);
#213=CURVE_STYLE('',#344,POSITIVE_LENGTH_MEASURE(1.0E-006),#345);
#214=CIRCLE('',#346,0.4);
#215=POINT_STYLE(' ',#347,POSITIVE_LENGTH_MEASURE(1.0E-006),#348);
#216=CARTESIAN_POINT('',(4.4,4.52987396601361,-2.2));
#217=CURVE_STYLE('',#349,POSITIVE_LENGTH_MEASURE(1.0E-006),#350);
#218=CIRCLE('',#351,0.400000000000001);
#219=SURFACE_STYLE_USAGE(.BOTH.,#352);
#220=FACE_OUTER_BOUND('',#353,.T.);
#221=PLANE('',#354);
#222=POINT_STYLE(' ',#355,POSITIVE_LENGTH_MEASURE(1.0E-006),#356);
#223=CARTESIAN_POINT('',(4.4,0.0,0.0));
#224=CURVE_STYLE('',#357,POSITIVE_LENGTH_MEASURE(1.0E-006),#358);
#225=LINE('',#359,#360);
#226=CURVE_STYLE('',#361,POSITIVE_LENGTH_MEASURE(1.0E-006),#362);
#227=LINE('',#363,#364);
#228=POINT_STYLE(' ',#365,POSITIVE_LENGTH_MEASURE(1.0E-006),#366);
#229=CARTESIAN_POINT('',(4.8,4.4,0.0));
#230=SURFACE_STYLE_USAGE(.BOTH.,#367);
#231=FACE_OUTER_BOUND('',#368,.T.);
#232=CONICAL_SURFACE('',#369,0.4,0.122173047639603);
#233=CURVE_STYLE('',#370,POSITIVE_LENGTH_MEASURE(1.0E-006),#371);
#234=LINE('',#372,#373);
#235=SURFACE_STYLE_USAGE(.BOTH.,#374);
#236=FACE_OUTER_BOUND('',#375,.T.);
#237=CONICAL_SURFACE('',#376,0.400000000000001,0.122173047639603);
#238=POINT_STYLE(' ',#377,POSITIVE_LENGTH_MEASURE(1.0E-006),#378);
#239=CARTESIAN_POINT('',(9.99991200956174E-011,4.4,0.0));
#240=SURFACE_STYLE_USAGE(.BOTH.,#379);
#241=CLOSED_SHELL('',(#163,#135,#149,#83,#115,#165,#111,#145,#101,#169));
#242=CURVE_STYLE('',#380,POSITIVE_LENGTH_MEASURE(1.0E-006),#381);
#243=LINE('',#382,#383);
#244=POINT_STYLE(' ',#384,POSITIVE_LENGTH_MEASURE(1.0E-006),#385);
#245=CARTESIAN_POINT('',(0.27012603398639,4.4,-2.2));
#246=CURVE_STYLE('',#386,POSITIVE_LENGTH_MEASURE(1.0E-006),#387);
#247=LINE('',#388,#389);
#248=CURVE_STYLE('',#390,POSITIVE_LENGTH_MEASURE(1.0E-006),#391);
#249=LINE('',#392,#393);
#250=CURVE_STYLE('',#394,POSITIVE_LENGTH_MEASURE(1.0E-006),#395);
#251=LINE('',#396,#397);
#252=POINT_STYLE(' ',#398,POSITIVE_LENGTH_MEASURE(1.0E-006),#399);
#253=CARTESIAN_POINT('',(4.7999999999,0.4,0.0));
#254=POINT_STYLE(' ',#400,POSITIVE_LENGTH_MEASURE(1.0E-006),#401);
#255=CARTESIAN_POINT('',(0.4,4.8,0.0));
#256=SURFACE_STYLE_USAGE(.BOTH.,#402);
#257=FACE_OUTER_BOUND('',#403,.T.);
#258=PLANE('',#404);
#259=POINT_STYLE(' ',#405,POSITIVE_LENGTH_MEASURE(1.0E-006),#406);
#260=CARTESIAN_POINT('',(4.52987396601361,0.4,-2.2));
#261=CURVE_STYLE('',#407,POSITIVE_LENGTH_MEASURE(1.0E-006),#408);
#262=CIRCLE('',#409,0.129873966013612);
#263=CURVE_STYLE('',#410,POSITIVE_LENGTH_MEASURE(1.0E-006),#411);
#264=LINE('',#412,#413);
#265=POINT_STYLE(' ',#414,POSITIVE_LENGTH_MEASURE(1.0E-006),#415);
#266=CARTESIAN_POINT('',(0.4,0.27012603398639,-2.2));
#267=SURFACE_STYLE_USAGE(.BOTH.,#416);
#268=FACE_OUTER_BOUND('',#417,.T.);
#269=PLANE('',#418);
#270=POINT_STYLE(' ',#419,POSITIVE_LENGTH_MEASURE(1.0E-006),#420);
#271=CARTESIAN_POINT('',(4.52987396591361,4.39999999993247,-2.2));
#272=SURFACE_STYLE_USAGE(.BOTH.,#421);
#273=FACE_OUTER_BOUND('',#422,.T.);
#274=CONICAL_SURFACE('',#423,0.400000000000001,0.122173047639603);
#275=POINT_STYLE(' ',#424,POSITIVE_LENGTH_MEASURE(1.0E-006),#425);
#276=CARTESIAN_POINT('',(4.4,4.7999999999,0.0));
#277=POINT_STYLE(' ',#426,POSITIVE_LENGTH_MEASURE(1.0E-006),#427);
#278=CARTESIAN_POINT('',(0.400000000067532,4.52987396591361,-2.2));
#279=CURVE_STYLE('',#428,POSITIVE_LENGTH_MEASURE(1.0E-006),#429);
#280=LINE('',#430,#431);
#281=POINT_STYLE(' ',#432,POSITIVE_LENGTH_MEASURE(1.0E-006),#433);
#282=CARTESIAN_POINT('',(0.270126034086389,0.400000000067531,-2.2));
#283=POINT_STYLE(' ',#434,POSITIVE_LENGTH_MEASURE(1.0E-006),#435);
#284=CARTESIAN_POINT('',(0.0,0.4,0.0));
#285=CURVE_STYLE('',#436,POSITIVE_LENGTH_MEASURE(1.0E-006),#437);
#286=LINE('',#438,#439);
#287=SURFACE_STYLE_USAGE(.BOTH.,#440);
#288=FACE_OUTER_BOUND('',#441,.T.);
#289=CONICAL_SURFACE('',#442,0.4,0.122173047639603);
#290=SURFACE_STYLE_USAGE(.BOTH.,#443);
#291=FACE_OUTER_BOUND('',#444,.T.);
#292=PLANE('',#445);
#293=POINT_STYLE(' ',#446,POSITIVE_LENGTH_MEASURE(1.0E-006),#447);
#294=CARTESIAN_POINT('',(4.39999999993247,0.270126034086389,-2.2));
#295=SURFACE_STYLE_USAGE(.BOTH.,#448);
#296=FACE_OUTER_BOUND('',#449,.T.);
#297=PLANE('',#450);
#298=CURVE_STYLE('',#451,POSITIVE_LENGTH_MEASURE(1.0E-006),#452);
#299=CIRCLE('',#453,0.400000000000001);
#300=CURVE_STYLE('',#454,POSITIVE_LENGTH_MEASURE(1.0E-006),#455);
#301=CIRCLE('',#456,0.129873966013612);
#302=CURVE_STYLE('',#457,POSITIVE_LENGTH_MEASURE(1.0E-006),#458);
#303=LINE('',#459,#460);
#304=PRODUCT_CONTEXT('',#61,'mechanical');
#305=PRODUCT_DEFINITION_FORMATION_WITH_SPECIFIED_SOURCE(' ','NONE',#176,.NOT_KNOWN.);
#306=CARTESIAN_POINT('',(0.0,0.0,0.0));
#307=DIRECTION('',(0.0,0.0,1.0));
#308=DIRECTION('',(1.0,0.0,0.0));
#309= (NAMED_UNIT(#184)LENGTH_UNIT()SI_UNIT(.MILLI.,.METRE.));
#310=DRAUGHTING_PRE_DEFINED_CURVE_FONT('continuous');
#311=COLOUR_RGB('',0.800000011920929,0.800000011920929,0.800000011920929);
#312=AXIS2_PLACEMENT_3D('',#462,#463,#464);
#313=DRAUGHTING_PRE_DEFINED_CURVE_FONT('continuous');
#314=COLOUR_RGB('',0.800000011920929,0.800000011920929,0.800000011920929);
#315=CARTESIAN_POINT('',(4.8,0.4,0.0));
#316=VECTOR('',#465,1.0);
#317=DRAUGHTING_PRE_DEFINED_CURVE_FONT('continuous');
#318=COLOUR_RGB('',0.800000011920929,0.800000011920929,0.800000011920929);
#319=CARTESIAN_POINT('',(4.4,4.7999999999,0.0));
#320=VECTOR('',#466,1.0);
#321=DRAUGHTING_PRE_DEFINED_CURVE_FONT('continuous');
#322=COLOUR_RGB('',0.800000011920929,0.800000011920929,0.800000011920929);
#323=CARTESIAN_POINT('',(0.0,4.4,0.0));
#324=VECTOR('',#467,1.0);
#325=SURFACE_SIDE_STYLE('',(#468));
#326=EDGE_LOOP('',(#469,#470,#471,#472));
#327=AXIS2_PLACEMENT_3D('',#473,#474,#475);
#328=DRAUGHTING_PRE_DEFINED_CURVE_FONT('continuous');
#329=COLOUR_RGB('',0.800000011920929,0.800000011920929,0.800000011920929);
#330=AXIS2_PLACEMENT_3D('',#476,#477,#478);
#331=DRAUGHTING_PRE_DEFINED_CURVE_FONT('continuous');
#332=COLOUR_RGB('',0.800000011920929,0.800000011920929,0.800000011920929);
#333=AXIS2_PLACEMENT_3D('',#479,#480,#481);
#334=PRE_DEFINED_MARKER('');
#335=COLOUR_RGB('',0.800000011920929,0.800000011920929,0.800000011920929);
#336=DRAUGHTING_PRE_DEFINED_CURVE_FONT('continuous');
#337=COLOUR_RGB('',0.800000011920929,0.800000011920929,0.800000011920929);
#338=CARTESIAN_POINT('',(0.4,0.0,0.0));
#339=VECTOR('',#482,1.0);
#340=DRAUGHTING_PRE_DEFINED_CURVE_FONT('continuous');
#341=COLOUR_RGB('',0.800000011920929,0.800000011920929,0.800000011920929);
#342=CARTESIAN_POINT('',(4.4,4.52987396601361,-2.2));
#343=VECTOR('',#483,1.0);
#344=DRAUGHTING_PRE_DEFINED_CURVE_FONT('continuous');
#345=COLOUR_RGB('',0.800000011920929,0.800000011920929,0.800000011920929);
#346=AXIS2_PLACEMENT_3D('',#484,#485,#486);
#347=PRE_DEFINED_MARKER('');
#348=COLOUR_RGB('',0.800000011920929,0.800000011920929,0.800000011920929);
#349=DRAUGHTING_PRE_DEFINED_CURVE_FONT('continuous');
#350=COLOUR_RGB('',0.800000011920929,0.800000011920929,0.800000011920929);
#351=AXIS2_PLACEMENT_3D('',#487,#488,#489);
#352=SURFACE_SIDE_STYLE('',(#490));
#353=EDGE_LOOP('',(#491,#492,#493,#494,#495,#496,#497,#498));
#354=AXIS2_PLACEMENT_3D('',#499,#500,#501);
#355=PRE_DEFINED_MARKER('');
#356=COLOUR_RGB('',0.800000011920929,0.800000011920929,0.800000011920929);
#357=DRAUGHTING_PRE_DEFINED_CURVE_FONT('continuous');
#358=COLOUR_RGB('',0.800000011920929,0.800000011920929,0.800000011920929);
#359=CARTESIAN_POINT('',(0.4,0.27012603398639,-2.2));
#360=VECTOR('',#502,1.0);
#361=DRAUGHTING_PRE_DEFINED_CURVE_FONT('continuous');
#362=COLOUR_RGB('',0.800000011920929,0.800000011920929,0.800000011920929);
#363=CARTESIAN_POINT('',(0.4,0.0,0.0));
#364=VECTOR('',#503,1.0);
#365=PRE_DEFINED_MARKER('');
#366=COLOUR_RGB('',0.800000011920929,0.800000011920929,0.800000011920929);
#367=SURFACE_SIDE_STYLE('',(#504));
#368=EDGE_LOOP('',(#505,#506,#507,#508));
#369=AXIS2_PLACEMENT_3D('',#509,#510,#511);
#370=DRAUGHTING_PRE_DEFINED_CURVE_FONT('continuous');
#371=COLOUR_RGB('',0.800000011920929,0.800000011920929,0.800000011920929);
#372=CARTESIAN_POINT('',(4.52987396601361,0.4,-2.2));
#373=VECTOR('',#512,1.0);
#374=SURFACE_SIDE_STYLE('',(#513));
#375=EDGE_LOOP('',(#514,#515,#516,#517));
#376=AXIS2_PLACEMENT_3D('',#518,#519,#520);
#377=PRE_DEFINED_MARKER('');
#378=COLOUR_RGB('',0.800000011920929,0.800000011920929,0.800000011920929);
#379=SURFACE_SIDE_STYLE('',(#521));
#380=DRAUGHTING_PRE_DEFINED_CURVE_FONT('continuous');
#381=COLOUR_RGB('',0.800000011920929,0.800000011920929,0.800000011920929);
#382=CARTESIAN_POINT('',(4.8,4.4,0.0));
#383=VECTOR('',#522,1.0);
#384=PRE_DEFINED_MARKER('');
#385=COLOUR_RGB('',0.800000011920929,0.800000011920929,0.800000011920929);
#386=DRAUGHTING_PRE_DEFINED_CURVE_FONT('continuous');
#387=COLOUR_RGB('',0.800000011920929,0.800000011920929,0.800000011920929);
#388=CARTESIAN_POINT('',(0.27012603398639,4.4,-2.2));
#389=VECTOR('',#523,1.0);
#390=DRAUGHTING_PRE_DEFINED_CURVE_FONT('continuous');
#391=COLOUR_RGB('',0.800000011920929,0.800000011920929,0.800000011920929);
#392=CARTESIAN_POINT('',(4.4,0.0,0.0));
#393=VECTOR('',#524,1.0);
#394=DRAUGHTING_PRE_DEFINED_CURVE_FONT('continuous');
#395=COLOUR_RGB('',0.800000011920929,0.800000011920929,0.800000011920929);
#396=CARTESIAN_POINT('',(9.99991200956174E-011,4.4,0.0));
#397=VECTOR('',#525,1.0);
#398=PRE_DEFINED_MARKER('');
#399=COLOUR_RGB('',0.800000011920929,0.800000011920929,0.800000011920929);
#400=PRE_DEFINED_MARKER('');
#401=COLOUR_RGB('',0.800000011920929,0.800000011920929,0.800000011920929);
#402=SURFACE_SIDE_STYLE('',(#526));
#403=EDGE_LOOP('',(#527,#528,#529,#530));
#404=AXIS2_PLACEMENT_3D('',#531,#532,#533);
#405=PRE_DEFINED_MARKER('');
#406=COLOUR_RGB('',0.800000011920929,0.800000011920929,0.800000011920929);
#407=DRAUGHTING_PRE_DEFINED_CURVE_FONT('continuous');
#408=COLOUR_RGB('',0.800000011920929,0.800000011920929,0.800000011920929);
#409=AXIS2_PLACEMENT_3D('',#534,#535,#536);
#410=DRAUGHTING_PRE_DEFINED_CURVE_FONT('continuous');
#411=COLOUR_RGB('',0.800000011920929,0.800000011920929,0.800000011920929);
#412=CARTESIAN_POINT('',(0.4,4.8,0.0));
#413=VECTOR('',#537,1.0);
#414=PRE_DEFINED_MARKER('');
#415=COLOUR_RGB('',0.800000011920929,0.800000011920929,0.800000011920929);
#416=SURFACE_SIDE_STYLE('',(#538));
#417=EDGE_LOOP('',(#539,#540,#541,#542));
#418=AXIS2_PLACEMENT_3D('',#543,#544,#545);
#419=PRE_DEFINED_MARKER('');
#420=COLOUR_RGB('',0.800000011920929,0.800000011920929,0.800000011920929);
#421=SURFACE_SIDE_STYLE('',(#546));
#422=EDGE_LOOP('',(#547,#548,#549,#550));
#423=AXIS2_PLACEMENT_3D('',#551,#552,#553);
#424=PRE_DEFINED_MARKER('');
#425=COLOUR_RGB('',0.800000011920929,0.800000011920929,0.800000011920929);
#426=PRE_DEFINED_MARKER('');
#427=COLOUR_RGB('',0.800000011920929,0.800000011920929,0.800000011920929);
#428=DRAUGHTING_PRE_DEFINED_CURVE_FONT('continuous');
#429=COLOUR_RGB('',0.800000011920929,0.800000011920929,0.800000011920929);
#430=CARTESIAN_POINT('',(4.7999999999,0.4,0.0));
#431=VECTOR('',#554,1.0);
#432=PRE_DEFINED_MARKER('');
#433=COLOUR_RGB('',0.800000011920929,0.800000011920929,0.800000011920929);
#434=PRE_DEFINED_MARKER('');
#435=COLOUR_RGB('',0.800000011920929,0.800000011920929,0.800000011920929);
#436=DRAUGHTING_PRE_DEFINED_CURVE_FONT('continuous');
#437=COLOUR_RGB('',0.800000011920929,0.800000011920929,0.800000011920929);
#438=CARTESIAN_POINT('',(0.0,0.4,0.0));
#439=VECTOR('',#555,1.0);
#440=SURFACE_SIDE_STYLE('',(#556));
#441=EDGE_LOOP('',(#557,#558,#559,#560));
#442=AXIS2_PLACEMENT_3D('',#561,#562,#563);
#443=SURFACE_SIDE_STYLE('',(#564));
#444=EDGE_LOOP('',(#565,#566,#567,#568));
#445=AXIS2_PLACEMENT_3D('',#569,#570,#571);
#446=PRE_DEFINED_MARKER('');
#447=COLOUR_RGB('',0.800000011920929,0.800000011920929,0.800000011920929);
#448=SURFACE_SIDE_STYLE('',(#572));
#449=EDGE_LOOP('',(#573,#574,#575,#576,#577,#578,#579,#580));
#450=AXIS2_PLACEMENT_3D('',#581,#582,#583);
#451=DRAUGHTING_PRE_DEFINED_CURVE_FONT('continuous');
#452=COLOUR_RGB('',0.800000011920929,0.800000011920929,0.800000011920929);
#453=AXIS2_PLACEMENT_3D('',#584,#585,#586);
#454=DRAUGHTING_PRE_DEFINED_CURVE_FONT('continuous');
#455=COLOUR_RGB('',0.800000011920929,0.800000011920929,0.800000011920929);
#456=AXIS2_PLACEMENT_3D('',#587,#588,#589);
#457=DRAUGHTING_PRE_DEFINED_CURVE_FONT('continuous');
#458=COLOUR_RGB('',0.800000011920929,0.800000011920929,0.800000011920929);
#459=CARTESIAN_POINT('',(4.4,4.8,0.0));
#460=VECTOR('',#590,1.0);
#462=CARTESIAN_POINT('',(4.3999999999,0.4000000001,0.0));
#463=DIRECTION('',(0.0,0.0,1.0));
#464=DIRECTION('',(2.50000020685093E-010,-1.0,0.0));
#465=DIRECTION('',(0.0,1.0,0.0));
#466=DIRECTION('',(0.0,-0.121869343360701,-0.992546151646779));
#467=DIRECTION('',(0.0,-1.0,0.0));
#468=SURFACE_STYLE_FILL_AREA(#591);
#469=ORIENTED_EDGE('',*,*,#93,.T.);
#470=ORIENTED_EDGE('',*,*,#141,.F.);
#471=ORIENTED_EDGE('',*,*,#175,.F.);
#472=ORIENTED_EDGE('',*,*,#79,.T.);
#473=CARTESIAN_POINT('',(4.4,4.7999999999,0.0));
#474=DIRECTION('',(0.0,0.992546151646779,-0.121869343360701));
#475=DIRECTION('',(1.0,-0.0,0.0));
#476=CARTESIAN_POINT('',(4.3999999999,0.4000000001,-2.2));
#477=DIRECTION('',(0.0,0.0,1.0));
#478=DIRECTION('',(2.50000020685093E-010,-1.0,0.0));
#479=CARTESIAN_POINT('',(0.4000000001,0.4000000001,-2.2));
#480=DIRECTION('',(0.0,0.0,1.0));
#481=DIRECTION('',(-1.0,-2.49998494128434E-010,0.0));
#482=DIRECTION('',(0.0,0.121869343405147,-0.992546151641322));
#483=DIRECTION('',(-1.0,0.0,0.0));
#484=CARTESIAN_POINT('',(0.4000000001,0.4000000001,0.0));
#485=DIRECTION('',(0.0,0.0,1.0));
#486=DIRECTION('',(-1.0,-2.49998494128434E-010,0.0));
#487=CARTESIAN_POINT('',(4.3999999999,4.3999999999,0.0));
#488=DIRECTION('',(0.0,-0.0,1.0));
#489=DIRECTION('',(1.0,2.50002241131141E-010,0.0));
#490=SURFACE_STYLE_FILL_AREA(#592);
#491=ORIENTED_EDGE('',*,*,#85,.F.);
#492=ORIENTED_EDGE('',*,*,#105,.F.);
#493=ORIENTED_EDGE('',*,*,#87,.F.);
#494=ORIENTED_EDGE('',*,*,#125,.F.);
#495=ORIENTED_EDGE('',*,*,#139,.F.);
#496=ORIENTED_EDGE('',*,*,#93,.F.);
#497=ORIENTED_EDGE('',*,*,#173,.F.);
#498=ORIENTED_EDGE('',*,*,#113,.F.);
#499=CARTESIAN_POINT('',(2.4,2.4,-2.2));
#500=DIRECTION('',(0.0,0.0,1.0));
#501=DIRECTION('',(1.0,0.0,0.0));
#502=DIRECTION('',(1.0,0.0,0.0));
#503=DIRECTION('',(1.0,0.0,0.0));
#504=SURFACE_STYLE_FILL_AREA(#593);
#505=ORIENTED_EDGE('',*,*,#87,.T.);
#506=ORIENTED_EDGE('',*,*,#91,.F.);
#507=ORIENTED_EDGE('',*,*,#95,.F.);
#508=ORIENTED_EDGE('',*,*,#161,.T.);
#509=CARTESIAN_POINT('',(0.4000000001,0.4000000001,0.0));
#510=DIRECTION('',(0.0,-0.0,1.0));
#511=DIRECTION('',(-1.0,-2.49998494128434E-010,0.0));
#512=DIRECTION('',(0.0,1.0,0.0));
#513=SURFACE_STYLE_FILL_AREA(#594);
#514=ORIENTED_EDGE('',*,*,#139,.T.);
#515=ORIENTED_EDGE('',*,*,#129,.F.);
#516=ORIENTED_EDGE('',*,*,#171,.F.);
#517=ORIENTED_EDGE('',*,*,#141,.T.);
#518=CARTESIAN_POINT('',(0.4000000001,4.3999999999,0.0));
#519=DIRECTION('',(-0.0,-0.0,1.0));
#520=DIRECTION('',(-2.50001269685995E-010,1.0,0.0));
#521=SURFACE_STYLE_FILL_AREA(#595);
#522=DIRECTION('',(-0.121869343449593,-3.04674483999346E-011,-0.992546151635865));
#523=DIRECTION('',(0.0,-1.0,0.0));
#524=DIRECTION('',(-3.04670476917198E-011,0.121869343449593,-0.992546151635865));
#525=DIRECTION('',(0.121869343360702,0.0,-0.992546151646779));
#526=SURFACE_STYLE_FILL_AREA(#596);
#527=ORIENTED_EDGE('',*,*,#113,.T.);
#528=ORIENTED_EDGE('',*,*,#121,.F.);
#529=ORIENTED_EDGE('',*,*,#77,.F.);
#530=ORIENTED_EDGE('',*,*,#155,.T.);
#531=CARTESIAN_POINT('',(4.7999999999,0.4,0.0));
#532=DIRECTION('',(0.992546151646779,-0.0,-0.121869343360702));
#533=DIRECTION('',(-0.0,-1.0,0.0));
#534=CARTESIAN_POINT('',(0.4000000001,4.3999999999,-2.2));
#535=DIRECTION('',(0.0,0.0,1.0));
#536=DIRECTION('',(-2.50001269685995E-010,1.0,0.0));
#537=DIRECTION('',(3.0467473444198E-011,-0.121869343449593,-0.992546151635865));
#538=SURFACE_STYLE_FILL_AREA(#597);
#539=ORIENTED_EDGE('',*,*,#105,.T.);
#540=ORIENTED_EDGE('',*,*,#127,.F.);
#541=ORIENTED_EDGE('',*,*,#107,.F.);
#542=ORIENTED_EDGE('',*,*,#91,.T.);
#543=CARTESIAN_POINT('',(0.4,0.0,0.0));
#544=DIRECTION('',(-0.0,-0.992546151641322,-0.121869343405147));
#545=DIRECTION('',(-1.0,0.0,0.0));
#546=SURFACE_STYLE_FILL_AREA(#598);
#547=ORIENTED_EDGE('',*,*,#173,.T.);
#548=ORIENTED_EDGE('',*,*,#79,.F.);
#549=ORIENTED_EDGE('',*,*,#99,.F.);
#550=ORIENTED_EDGE('',*,*,#121,.T.);
#551=CARTESIAN_POINT('',(4.3999999999,4.3999999999,0.0));
#552=DIRECTION('',(-0.0,-0.0,1.0));
#553=DIRECTION('',(1.0,2.50002241131141E-010,0.0));
#554=DIRECTION('',(-0.121869343360702,0.0,-0.992546151646779));
#555=DIRECTION('',(0.121869343449593,3.04673231786175E-011,-0.992546151635865));
#556=SURFACE_STYLE_FILL_AREA(#599);
#557=ORIENTED_EDGE('',*,*,#85,.T.);
#558=ORIENTED_EDGE('',*,*,#155,.F.);
#559=ORIENTED_EDGE('',*,*,#75,.F.);
#560=ORIENTED_EDGE('',*,*,#127,.T.);
#561=CARTESIAN_POINT('',(4.3999999999,0.4000000001,0.0));
#562=DIRECTION('',(-0.0,-0.0,1.0));
#563=DIRECTION('',(2.50000020685093E-010,-1.0,0.0));
#564=SURFACE_STYLE_FILL_AREA(#600);
#565=ORIENTED_EDGE('',*,*,#125,.T.);
#566=ORIENTED_EDGE('',*,*,#161,.F.);
#567=ORIENTED_EDGE('',*,*,#81,.F.);
#568=ORIENTED_EDGE('',*,*,#129,.T.);
#569=CARTESIAN_POINT('',(9.99991200956174E-011,4.4,0.0));
#570=DIRECTION('',(-0.992546151646779,0.0,-0.121869343360702));
#571=DIRECTION('',(0.0,1.0,0.0));
#572=SURFACE_STYLE_FILL_AREA(#601);
#573=ORIENTED_EDGE('',*,*,#107,.T.);
#574=ORIENTED_EDGE('',*,*,#75,.T.);
#575=ORIENTED_EDGE('',*,*,#77,.T.);
#576=ORIENTED_EDGE('',*,*,#99,.T.);
#577=ORIENTED_EDGE('',*,*,#175,.T.);
#578=ORIENTED_EDGE('',*,*,#171,.T.);
#579=ORIENTED_EDGE('',*,*,#81,.T.);
#580=ORIENTED_EDGE('',*,*,#95,.T.);
#581=CARTESIAN_POINT('',(2.4,2.4,0.0));
#582=DIRECTION('',(0.0,0.0,1.0));
#583=DIRECTION('',(1.0,0.0,0.0));
#584=CARTESIAN_POINT('',(0.4000000001,4.3999999999,0.0));
#585=DIRECTION('',(0.0,0.0,1.0));
#586=DIRECTION('',(-2.50001269685995E-010,1.0,0.0));
#587=CARTESIAN_POINT('',(4.3999999999,4.3999999999,-2.2));
#588=DIRECTION('',(0.0,-0.0,1.0));
#589=DIRECTION('',(1.0,2.50002241131141E-010,0.0));
#590=DIRECTION('',(-1.0,0.0,0.0));
#591=FILL_AREA_STYLE('',(#602));
#592=FILL_AREA_STYLE('',(#603));
#593=FILL_AREA_STYLE('',(#604));
#594=FILL_AREA_STYLE('',(#605));
#595=FILL_AREA_STYLE('',(#606));
#596=FILL_AREA_STYLE('',(#607));
#597=FILL_AREA_STYLE('',(#608));
#598=FILL_AREA_STYLE('',(#609));
#599=FILL_AREA_STYLE('',(#610));
#600=FILL_AREA_STYLE('',(#611));
#601=FILL_AREA_STYLE('',(#612));
#602=FILL_AREA_STYLE_COLOUR('',#613);
#603=FILL_AREA_STYLE_COLOUR('',#614);
#604=FILL_AREA_STYLE_COLOUR('',#615);
#605=FILL_AREA_STYLE_COLOUR('',#616);
#606=FILL_AREA_STYLE_COLOUR('',#617);
#607=FILL_AREA_STYLE_COLOUR('',#618);
#608=FILL_AREA_STYLE_COLOUR('',#619);
#609=FILL_AREA_STYLE_COLOUR('',#620);
#610=FILL_AREA_STYLE_COLOUR('',#621);
#611=FILL_AREA_STYLE_COLOUR('',#622);
#612=FILL_AREA_STYLE_COLOUR('',#623);
#613=COLOUR_RGB('',0.800000011920929,0.800000011920929,0.800000011920929);
#614=COLOUR_RGB('',0.800000011920929,0.800000011920929,0.800000011920929);
#615=COLOUR_RGB('',0.800000011920929,0.800000011920929,0.800000011920929);
#616=COLOUR_RGB('',0.800000011920929,0.800000011920929,0.800000011920929);
#617=COLOUR_RGB('',0.800000011920929,0.800000011920929,0.800000011920929);
#618=COLOUR_RGB('',0.800000011920929,0.800000011920929,0.800000011920929);
#619=COLOUR_RGB('',0.800000011920929,0.800000011920929,0.800000011920929);
#620=COLOUR_RGB('',0.800000011920929,0.800000011920929,0.800000011920929);
#621=COLOUR_RGB('',0.800000011920929,0.800000011920929,0.800000011920929);
#622=COLOUR_RGB('',0.800000011920929,0.800000011920929,0.800000011920929);
#623=COLOUR_RGB('',0.800000011920929,0.800000011920929,0.800000011920929);
#624=AXIS2_PLACEMENT_3D('PCS',#625,#626,#627);
#625=CARTESIAN_POINT('',(0.0,0.0,0.0));
#626=DIRECTION('',(0.0,0.0,1.0));
#627=DIRECTION('',(1.0,0.0,0.0));
#628=AXIS2_PLACEMENT_3D('MCS',#629,#630,#631);
#629=CARTESIAN_POINT('',(2.4,2.4,0.0));
#630=DIRECTION('',(0.0,0.0,1.0));
#631=DIRECTION('',(1.0,0.0,0.0));
#632=CONSTRUCTIVE_GEOMETRY_REPRESENTATION_RELATIONSHIP('coordinate systems',$,#65,#633);
#633=CONSTRUCTIVE_GEOMETRY_REPRESENTATION('coordinate systems',(#624,#628),#6);
ENDSEC;
END-ISO-10303-21;
