ISO-10303-21;
HEADER;
FILE_DESCRIPTION(('no description'),'unknown implementation level');
FILE_NAME('solidduzoVIjN79HrVqixj7LeKyCm_JM_1.STP','  ',('CIMSOURCE GmbH'),('CADClick - KiM GmbH - www.kimweb.de'),'unknown preprocess','ACIS','unknown authorization');
FILE_SCHEMA(('automotive_design'));
ENDSEC;
DATA;
#1=MECHANICAL_DESIGN_GEOMETRIC_PRESENTATION_REPRESENTATION(' ',(#10,#11,#12,#13,#14,#15,#16,#17,#18,#19,#20,#21,#22,#23,#24,#25,#26,#27,#28,#29,#30,#31,#32,#33,#34,#35,#36,#37,#38,#39,#40,#41,#42,#43,#44,#45,#46,#47,#48,#49,#50,#51,#52,#53,#54,#55,#56,#57,#58,#59,#60),#6);
#2=PRODUCT_DEFINITION_CONTEXT('',#61,'design');
#3=APPLICATION_PROTOCOL_DEFINITION('INTERNATIONAL STANDARD','automotive_design',1994,#61);
#4=PRODUCT_CATEGORY_RELATIONSHIP('NONE','NONE',#62,#63);
#5=SHAPE_DEFINITION_REPRESENTATION(#64,#65);
#6= (GEOMETRIC_REPRESENTATION_CONTEXT(3)GLOBAL_UNCERTAINTY_ASSIGNED_CONTEXT((#68))GLOBAL_UNIT_ASSIGNED_CONTEXT((#70,#71,#72))REPRESENTATION_CONTEXT('NONE','WORKSPACE'));
#10=STYLED_ITEM('',(#74),#75);
#11=STYLED_ITEM('',(#76),#77);
#12=STYLED_ITEM('',(#78),#79);
#13=STYLED_ITEM('',(#80),#81);
#14=STYLED_ITEM('',(#82),#83);
#15=STYLED_ITEM('',(#84),#85);
#16=STYLED_ITEM('',(#86),#87);
#17=STYLED_ITEM('',(#88),#89);
#18=STYLED_ITEM('',(#90),#91);
#19=STYLED_ITEM('',(#92),#93);
#20=STYLED_ITEM('',(#94),#95);
#21=STYLED_ITEM('',(#96),#97);
#22=STYLED_ITEM('',(#98),#99);
#23=STYLED_ITEM('',(#100),#101);
#24=STYLED_ITEM('',(#102),#103);
#25=STYLED_ITEM('',(#104),#105);
#26=STYLED_ITEM('',(#106),#107);
#27=STYLED_ITEM('',(#108),#109);
#28=STYLED_ITEM('',(#110),#111);
#29=STYLED_ITEM('',(#112),#113);
#30=STYLED_ITEM('',(#114),#115);
#31=STYLED_ITEM('',(#116),#117);
#32=STYLED_ITEM('',(#118),#119);
#33=STYLED_ITEM('',(#120),#121);
#34=STYLED_ITEM('',(#122),#123);
#35=STYLED_ITEM('',(#124),#125);
#36=STYLED_ITEM('',(#126),#127);
#37=STYLED_ITEM('',(#128),#129);
#38=STYLED_ITEM('',(#130),#131);
#39=STYLED_ITEM('',(#132),#133);
#40=STYLED_ITEM('',(#134),#135);
#41=STYLED_ITEM('',(#136),#137);
#42=STYLED_ITEM('',(#138),#139);
#43=STYLED_ITEM('',(#140),#141);
#44=STYLED_ITEM('',(#142),#143);
#45=STYLED_ITEM('',(#144),#145);
#46=STYLED_ITEM('',(#146),#147);
#47=STYLED_ITEM('',(#148),#149);
#48=STYLED_ITEM('',(#150),#151);
#49=STYLED_ITEM('',(#152),#153);
#50=STYLED_ITEM('',(#154),#155);
#51=STYLED_ITEM('',(#156),#157);
#52=STYLED_ITEM('',(#158),#159);
#53=STYLED_ITEM('',(#160),#161);
#54=STYLED_ITEM('',(#162),#163);
#55=STYLED_ITEM('',(#164),#165);
#56=STYLED_ITEM('',(#166),#167);
#57=STYLED_ITEM('',(#168),#169);
#58=STYLED_ITEM('',(#170),#171);
#59=STYLED_ITEM('',(#172),#173);
#60=STYLED_ITEM('',(#174),#175);
#61=APPLICATION_CONTEXT(' ');
#62=PRODUCT_CATEGORY('part','NONE');
#63=PRODUCT_RELATED_PRODUCT_CATEGORY('detail',' ',(#176));
#64=PRODUCT_DEFINITION_SHAPE('NONE','NONE',#177);
#65=ADVANCED_BREP_SHAPE_REPRESENTATION('1',(#141,#178),#6);
#68=UNCERTAINTY_MEASURE_WITH_UNIT(LENGTH_MEASURE(1.0E-006),#70,'','');
#70= (CONVERSION_BASED_UNIT('MILLIMETRE',#181)LENGTH_UNIT()NAMED_UNIT(#184));
#71= (NAMED_UNIT(#186)PLANE_ANGLE_UNIT()SI_UNIT($,.RADIAN.));
#72= (NAMED_UNIT(#186)SOLID_ANGLE_UNIT()SI_UNIT($,.STERADIAN.));
#74=PRESENTATION_STYLE_ASSIGNMENT((#192));
#75=VERTEX_POINT('',#193);
#76=PRESENTATION_STYLE_ASSIGNMENT((#194));
#77=VERTEX_POINT('',#195);
#78=PRESENTATION_STYLE_ASSIGNMENT((#196));
#79=ADVANCED_FACE('',(#197),#198,.T.);
#80=PRESENTATION_STYLE_ASSIGNMENT((#199));
#81=VERTEX_POINT('',#200);
#82=PRESENTATION_STYLE_ASSIGNMENT((#201));
#83=EDGE_CURVE('',#121,#131,#202,.T.);
#84=PRESENTATION_STYLE_ASSIGNMENT((#203));
#85=EDGE_CURVE('',#155,#159,#204,.T.);
#86=PRESENTATION_STYLE_ASSIGNMENT((#205));
#87=VERTEX_POINT('',#206);
#88=PRESENTATION_STYLE_ASSIGNMENT((#207));
#89=ADVANCED_FACE('',(#208),#209,.F.);
#90=PRESENTATION_STYLE_ASSIGNMENT((#210));
#91=ADVANCED_FACE('',(#211),#212,.T.);
#92=PRESENTATION_STYLE_ASSIGNMENT((#213));
#93=VERTEX_POINT('',#214);
#94=PRESENTATION_STYLE_ASSIGNMENT((#215));
#95=EDGE_CURVE('',#157,#125,#216,.T.);
#96=PRESENTATION_STYLE_ASSIGNMENT((#217));
#97=VERTEX_POINT('',#218);
#98=PRESENTATION_STYLE_ASSIGNMENT((#219));
#99=EDGE_CURVE('',#159,#121,#220,.T.);
#100=PRESENTATION_STYLE_ASSIGNMENT((#221));
#101=EDGE_CURVE('',#125,#129,#222,.T.);
#102=PRESENTATION_STYLE_ASSIGNMENT((#223));
#103=ADVANCED_FACE('',(#224),#225,.T.);
#104=PRESENTATION_STYLE_ASSIGNMENT((#226));
#105=ADVANCED_FACE('',(#227),#228,.T.);
#106=PRESENTATION_STYLE_ASSIGNMENT((#229));
#107=EDGE_CURVE('',#159,#81,#230,.T.);
#108=PRESENTATION_STYLE_ASSIGNMENT((#231));
#109=EDGE_CURVE('',#81,#131,#232,.T.);
#110=PRESENTATION_STYLE_ASSIGNMENT((#233));
#111=EDGE_CURVE('',#131,#97,#234,.T.);
#112=PRESENTATION_STYLE_ASSIGNMENT((#235));
#113=ADVANCED_FACE('',(#236),#237,.T.);
#114=PRESENTATION_STYLE_ASSIGNMENT((#238));
#115=EDGE_CURVE('',#93,#97,#239,.T.);
#116=PRESENTATION_STYLE_ASSIGNMENT((#240));
#117=EDGE_CURVE('',#157,#135,#241,.T.);
#118=PRESENTATION_STYLE_ASSIGNMENT((#242));
#119=EDGE_CURVE('',#129,#87,#243,.T.);
#120=PRESENTATION_STYLE_ASSIGNMENT((#244));
#121=VERTEX_POINT('',#245);
#122=PRESENTATION_STYLE_ASSIGNMENT((#246));
#123=EDGE_CURVE('',#135,#129,#247,.T.);
#124=PRESENTATION_STYLE_ASSIGNMENT((#248));
#125=VERTEX_POINT('',#249);
#126=PRESENTATION_STYLE_ASSIGNMENT((#250));
#127=ADVANCED_FACE('',(#251),#252,.T.);
#128=PRESENTATION_STYLE_ASSIGNMENT((#253));
#129=VERTEX_POINT('',#254);
#130=PRESENTATION_STYLE_ASSIGNMENT((#255));
#131=VERTEX_POINT('',#256);
#132=PRESENTATION_STYLE_ASSIGNMENT((#257));
#133=ADVANCED_FACE('',(#258),#259,.T.);
#134=PRESENTATION_STYLE_ASSIGNMENT((#260));
#135=VERTEX_POINT('',#261);
#136=PRESENTATION_STYLE_ASSIGNMENT((#262));
#137=EDGE_CURVE('',#163,#169,#263,.T.);
#138=PRESENTATION_STYLE_ASSIGNMENT((#264));
#139=EDGE_CURVE('',#169,#155,#265,.T.);
#140=PRESENTATION_STYLE_ASSIGNMENT((#266));
#141=MANIFOLD_SOLID_BREP('1',#267);
#142=PRESENTATION_STYLE_ASSIGNMENT((#268));
#143=ADVANCED_FACE('',(#269),#270,.T.);
#144=PRESENTATION_STYLE_ASSIGNMENT((#271));
#145=EDGE_CURVE('',#97,#125,#272,.T.);
#146=PRESENTATION_STYLE_ASSIGNMENT((#273));
#147=EDGE_CURVE('',#155,#75,#274,.T.);
#148=PRESENTATION_STYLE_ASSIGNMENT((#275));
#149=EDGE_CURVE('',#87,#77,#276,.T.);
#150=PRESENTATION_STYLE_ASSIGNMENT((#277));
#151=ADVANCED_FACE('',(#278),#279,.T.);
#152=PRESENTATION_STYLE_ASSIGNMENT((#280));
#153=EDGE_CURVE('',#75,#81,#281,.T.);
#154=PRESENTATION_STYLE_ASSIGNMENT((#282));
#155=VERTEX_POINT('',#283);
#156=PRESENTATION_STYLE_ASSIGNMENT((#284));
#157=VERTEX_POINT('',#285);
#158=PRESENTATION_STYLE_ASSIGNMENT((#286));
#159=VERTEX_POINT('',#287);
#160=PRESENTATION_STYLE_ASSIGNMENT((#288));
#161=EDGE_CURVE('',#93,#157,#289,.T.);
#162=PRESENTATION_STYLE_ASSIGNMENT((#290));
#163=VERTEX_POINT('',#291);
#164=PRESENTATION_STYLE_ASSIGNMENT((#292));
#165=EDGE_CURVE('',#163,#87,#293,.T.);
#166=PRESENTATION_STYLE_ASSIGNMENT((#294));
#167=EDGE_CURVE('',#135,#163,#295,.T.);
#168=PRESENTATION_STYLE_ASSIGNMENT((#296));
#169=VERTEX_POINT('',#297);
#170=PRESENTATION_STYLE_ASSIGNMENT((#298));
#171=EDGE_CURVE('',#169,#77,#299,.T.);
#172=PRESENTATION_STYLE_ASSIGNMENT((#300));
#173=EDGE_CURVE('',#77,#75,#301,.T.);
#174=PRESENTATION_STYLE_ASSIGNMENT((#302));
#175=EDGE_CURVE('',#121,#93,#303,.T.);
#176=PRODUCT('1','1','PART-1-DESC',(#304));
#177=PRODUCT_DEFINITION('NONE','NONE',#305,#2);
#178=AXIS2_PLACEMENT_3D('',#306,#307,#308);
#181=LENGTH_MEASURE_WITH_UNIT(LENGTH_MEASURE(1.0),#309);
#184=DIMENSIONAL_EXPONENTS(1.0,0.0,0.0,0.0,0.0,0.0,0.0);
#186=DIMENSIONAL_EXPONENTS(0.0,0.0,0.0,0.0,0.0,0.0,0.0);
#192=POINT_STYLE(' ',#310,POSITIVE_LENGTH_MEASURE(1.0E-006),#311);
#193=CARTESIAN_POINT('',(4.99999999992633,0.29468294626697,-2.4));
#194=POINT_STYLE(' ',#312,POSITIVE_LENGTH_MEASURE(1.0E-006),#313);
#195=CARTESIAN_POINT('',(0.4,0.29468294616697,-2.4));
#196=SURFACE_STYLE_USAGE(.BOTH.,#314);
#197=FACE_OUTER_BOUND('',#315,.T.);
#198=CONICAL_SURFACE('',#316,0.4,0.122173047639603);
#199=POINT_STYLE(' ',#317,POSITIVE_LENGTH_MEASURE(1.0E-006),#318);
#200=CARTESIAN_POINT('',(5.10531705383303,0.4,-2.4));
#201=CURVE_STYLE('',#319,POSITIVE_LENGTH_MEASURE(1.0E-006),#320);
#202=LINE('',#321,#322);
#203=CURVE_STYLE('',#323,POSITIVE_LENGTH_MEASURE(1.0E-006),#324);
#204=CIRCLE('',#325,0.4);
#205=POINT_STYLE(' ',#326,POSITIVE_LENGTH_MEASURE(1.0E-006),#327);
#206=CARTESIAN_POINT('',(0.29468294626697,0.400000000073671,-2.4));
#207=SURFACE_STYLE_USAGE(.BOTH.,#328);
#208=FACE_OUTER_BOUND('',#329,.T.);
#209=PLANE('',#330);
#210=SURFACE_STYLE_USAGE(.BOTH.,#331);
#211=FACE_OUTER_BOUND('',#332,.T.);
#212=CONICAL_SURFACE('',#333,0.400000000000001,0.122173047639603);
#213=POINT_STYLE(' ',#334,POSITIVE_LENGTH_MEASURE(1.0E-006),#335);
#214=CARTESIAN_POINT('',(5.0,5.3999999999,0.0));
#215=CURVE_STYLE('',#336,POSITIVE_LENGTH_MEASURE(1.0E-006),#337);
#216=LINE('',#338,#339);
#217=POINT_STYLE(' ',#340,POSITIVE_LENGTH_MEASURE(1.0E-006),#341);
#218=CARTESIAN_POINT('',(5.0,5.10531705383303,-2.4));
#219=CURVE_STYLE('',#342,POSITIVE_LENGTH_MEASURE(1.0E-006),#343);
#220=LINE('',#344,#345);
#221=CURVE_STYLE('',#346,POSITIVE_LENGTH_MEASURE(1.0E-006),#347);
#222=CIRCLE('',#348,0.105317053833031);
#223=SURFACE_STYLE_USAGE(.BOTH.,#349);
#224=FACE_OUTER_BOUND('',#350,.T.);
#225=CONICAL_SURFACE('',#351,0.400000000000001,0.122173047639603);
#226=SURFACE_STYLE_USAGE(.BOTH.,#352);
#227=FACE_OUTER_BOUND('',#353,.T.);
#228=PLANE('',#354);
#229=CURVE_STYLE('',#355,POSITIVE_LENGTH_MEASURE(1.0E-006),#356);
#230=LINE('',#357,#358);
#231=CURVE_STYLE('',#359,POSITIVE_LENGTH_MEASURE(1.0E-006),#360);
#232=LINE('',#361,#362);
#233=CURVE_STYLE('',#363,POSITIVE_LENGTH_MEASURE(1.0E-006),#364);
#234=CIRCLE('',#365,0.105317053833031);
#235=SURFACE_STYLE_USAGE(.BOTH.,#366);
#236=FACE_OUTER_BOUND('',#367,.T.);
#237=PLANE('',#368);
#238=CURVE_STYLE('',#369,POSITIVE_LENGTH_MEASURE(1.0E-006),#370);
#239=LINE('',#371,#372);
#240=CURVE_STYLE('',#373,POSITIVE_LENGTH_MEASURE(1.0E-006),#374);
#241=CIRCLE('',#375,0.400000000000001);
#242=CURVE_STYLE('',#376,POSITIVE_LENGTH_MEASURE(1.0E-006),#377);
#243=LINE('',#378,#379);
#244=POINT_STYLE(' ',#380,POSITIVE_LENGTH_MEASURE(1.0E-006),#381);
#245=CARTESIAN_POINT('',(5.4,5.0,0.0));
#246=CURVE_STYLE('',#382,POSITIVE_LENGTH_MEASURE(1.0E-006),#383);
#247=LINE('',#384,#385);
#248=POINT_STYLE(' ',#386,POSITIVE_LENGTH_MEASURE(1.0E-006),#387);
#249=CARTESIAN_POINT('',(0.400000000073671,5.10531705373303,-2.4));
#250=SURFACE_STYLE_USAGE(.BOTH.,#388);
#251=FACE_OUTER_BOUND('',#389,.T.);
#252=PLANE('',#390);
#253=POINT_STYLE(' ',#391,POSITIVE_LENGTH_MEASURE(1.0E-006),#392);
#254=CARTESIAN_POINT('',(0.29468294616697,5.0,-2.4));
#255=POINT_STYLE(' ',#393,POSITIVE_LENGTH_MEASURE(1.0E-006),#394);
#256=CARTESIAN_POINT('',(5.10531705373303,4.99999999992633,-2.4));
#257=SURFACE_STYLE_USAGE(.BOTH.,#395);
#258=FACE_OUTER_BOUND('',#396,.T.);
#259=CONICAL_SURFACE('',#397,0.4,0.122173047639603);
#260=POINT_STYLE(' ',#398,POSITIVE_LENGTH_MEASURE(1.0E-006),#399);
#261=CARTESIAN_POINT('',(9.99991200956174E-011,5.0,0.0));
#262=CURVE_STYLE('',#400,POSITIVE_LENGTH_MEASURE(1.0E-006),#401);
#263=CIRCLE('',#402,0.4);
#264=CURVE_STYLE('',#403,POSITIVE_LENGTH_MEASURE(1.0E-006),#404);
#265=LINE('',#405,#406);
#266=SURFACE_STYLE_USAGE(.BOTH.,#407);
#267=CLOSED_SHELL('',(#79,#105,#91,#113,#103,#151,#133,#127,#89,#143));
#268=SURFACE_STYLE_USAGE(.BOTH.,#408);
#269=FACE_OUTER_BOUND('',#409,.T.);
#270=PLANE('',#410);
#271=CURVE_STYLE('',#411,POSITIVE_LENGTH_MEASURE(1.0E-006),#412);
#272=LINE('',#413,#414);
#273=CURVE_STYLE('',#415,POSITIVE_LENGTH_MEASURE(1.0E-006),#416);
#274=LINE('',#417,#418);
#275=CURVE_STYLE('',#419,POSITIVE_LENGTH_MEASURE(1.0E-006),#420);
#276=CIRCLE('',#421,0.10531705383303);
#277=SURFACE_STYLE_USAGE(.BOTH.,#422);
#278=FACE_OUTER_BOUND('',#423,.T.);
#279=PLANE('',#424);
#280=CURVE_STYLE('',#425,POSITIVE_LENGTH_MEASURE(1.0E-006),#426);
#281=CIRCLE('',#427,0.10531705383303);
#282=POINT_STYLE(' ',#428,POSITIVE_LENGTH_MEASURE(1.0E-006),#429);
#283=CARTESIAN_POINT('',(5.0,0.0,0.0));
#284=POINT_STYLE(' ',#430,POSITIVE_LENGTH_MEASURE(1.0E-006),#431);
#285=CARTESIAN_POINT('',(0.4,5.4,0.0));
#286=POINT_STYLE(' ',#432,POSITIVE_LENGTH_MEASURE(1.0E-006),#433);
#287=CARTESIAN_POINT('',(5.3999999999,0.4,0.0));
#288=CURVE_STYLE('',#434,POSITIVE_LENGTH_MEASURE(1.0E-006),#435);
#289=LINE('',#436,#437);
#290=POINT_STYLE(' ',#438,POSITIVE_LENGTH_MEASURE(1.0E-006),#439);
#291=CARTESIAN_POINT('',(0.0,0.4,0.0));
#292=CURVE_STYLE('',#440,POSITIVE_LENGTH_MEASURE(1.0E-006),#441);
#293=LINE('',#442,#443);
#294=CURVE_STYLE('',#444,POSITIVE_LENGTH_MEASURE(1.0E-006),#445);
#295=LINE('',#446,#447);
#296=POINT_STYLE(' ',#448,POSITIVE_LENGTH_MEASURE(1.0E-006),#449);
#297=CARTESIAN_POINT('',(0.4,0.0,0.0));
#298=CURVE_STYLE('',#450,POSITIVE_LENGTH_MEASURE(1.0E-006),#451);
#299=LINE('',#452,#453);
#300=CURVE_STYLE('',#454,POSITIVE_LENGTH_MEASURE(1.0E-006),#455);
#301=LINE('',#456,#457);
#302=CURVE_STYLE('',#458,POSITIVE_LENGTH_MEASURE(1.0E-006),#459);
#303=CIRCLE('',#460,0.400000000000001);
#304=PRODUCT_CONTEXT('',#61,'mechanical');
#305=PRODUCT_DEFINITION_FORMATION_WITH_SPECIFIED_SOURCE(' ','NONE',#176,.NOT_KNOWN.);
#306=CARTESIAN_POINT('',(0.0,0.0,0.0));
#307=DIRECTION('',(0.0,0.0,1.0));
#308=DIRECTION('',(1.0,0.0,0.0));
#309= (NAMED_UNIT(#184)LENGTH_UNIT()SI_UNIT(.MILLI.,.METRE.));
#310=PRE_DEFINED_MARKER('');
#311=COLOUR_RGB('',0.800000011920929,0.800000011920929,0.800000011920929);
#312=PRE_DEFINED_MARKER('');
#313=COLOUR_RGB('',0.800000011920929,0.800000011920929,0.800000011920929);
#314=SURFACE_SIDE_STYLE('',(#462));
#315=EDGE_LOOP('',(#463,#464,#465,#466));
#316=AXIS2_PLACEMENT_3D('',#467,#468,#469);
#317=PRE_DEFINED_MARKER('');
#318=COLOUR_RGB('',0.800000011920929,0.800000011920929,0.800000011920929);
#319=DRAUGHTING_PRE_DEFINED_CURVE_FONT('continuous');
#320=COLOUR_RGB('',0.800000011920929,0.800000011920929,0.800000011920929);
#321=CARTESIAN_POINT('',(5.4,5.0,0.0));
#322=VECTOR('',#470,1.0);
#323=DRAUGHTING_PRE_DEFINED_CURVE_FONT('continuous');
#324=COLOUR_RGB('',0.800000011920929,0.800000011920929,0.800000011920929);
#325=AXIS2_PLACEMENT_3D('',#471,#472,#473);
#326=PRE_DEFINED_MARKER('');
#327=COLOUR_RGB('',0.800000011920929,0.800000011920929,0.800000011920929);
#328=SURFACE_SIDE_STYLE('',(#474));
#329=EDGE_LOOP('',(#475,#476,#477,#478,#479,#480,#481,#482));
#330=AXIS2_PLACEMENT_3D('',#483,#484,#485);
#331=SURFACE_SIDE_STYLE('',(#486));
#332=EDGE_LOOP('',(#487,#488,#489,#490));
#333=AXIS2_PLACEMENT_3D('',#491,#492,#493);
#334=PRE_DEFINED_MARKER('');
#335=COLOUR_RGB('',0.800000011920929,0.800000011920929,0.800000011920929);
#336=DRAUGHTING_PRE_DEFINED_CURVE_FONT('continuous');
#337=COLOUR_RGB('',0.800000011920929,0.800000011920929,0.800000011920929);
#338=CARTESIAN_POINT('',(0.4,5.4,0.0));
#339=VECTOR('',#494,1.0);
#340=PRE_DEFINED_MARKER('');
#341=COLOUR_RGB('',0.800000011920929,0.800000011920929,0.800000011920929);
#342=DRAUGHTING_PRE_DEFINED_CURVE_FONT('continuous');
#343=COLOUR_RGB('',0.800000011920929,0.800000011920929,0.800000011920929);
#344=CARTESIAN_POINT('',(5.4,0.4,0.0));
#345=VECTOR('',#495,1.0);
#346=DRAUGHTING_PRE_DEFINED_CURVE_FONT('continuous');
#347=COLOUR_RGB('',0.800000011920929,0.800000011920929,0.800000011920929);
#348=AXIS2_PLACEMENT_3D('',#496,#497,#498);
#349=SURFACE_SIDE_STYLE('',(#499));
#350=EDGE_LOOP('',(#500,#501,#502,#503));
#351=AXIS2_PLACEMENT_3D('',#504,#505,#506);
#352=SURFACE_SIDE_STYLE('',(#507));
#353=EDGE_LOOP('',(#508,#509,#510,#511));
#354=AXIS2_PLACEMENT_3D('',#512,#513,#514);
#355=DRAUGHTING_PRE_DEFINED_CURVE_FONT('continuous');
#356=COLOUR_RGB('',0.800000011920929,0.800000011920929,0.800000011920929);
#357=CARTESIAN_POINT('',(5.3999999999,0.4,0.0));
#358=VECTOR('',#515,1.0);
#359=DRAUGHTING_PRE_DEFINED_CURVE_FONT('continuous');
#360=COLOUR_RGB('',0.800000011920929,0.800000011920929,0.800000011920929);
#361=CARTESIAN_POINT('',(5.10531705383303,0.4,-2.4));
#362=VECTOR('',#516,1.0);
#363=DRAUGHTING_PRE_DEFINED_CURVE_FONT('continuous');
#364=COLOUR_RGB('',0.800000011920929,0.800000011920929,0.800000011920929);
#365=AXIS2_PLACEMENT_3D('',#517,#518,#519);
#366=SURFACE_SIDE_STYLE('',(#520));
#367=EDGE_LOOP('',(#521,#522,#523,#524));
#368=AXIS2_PLACEMENT_3D('',#525,#526,#527);
#369=DRAUGHTING_PRE_DEFINED_CURVE_FONT('continuous');
#370=COLOUR_RGB('',0.800000011920929,0.800000011920929,0.800000011920929);
#371=CARTESIAN_POINT('',(5.0,5.3999999999,0.0));
#372=VECTOR('',#528,1.0);
#373=DRAUGHTING_PRE_DEFINED_CURVE_FONT('continuous');
#374=COLOUR_RGB('',0.800000011920929,0.800000011920929,0.800000011920929);
#375=AXIS2_PLACEMENT_3D('',#529,#530,#531);
#376=DRAUGHTING_PRE_DEFINED_CURVE_FONT('continuous');
#377=COLOUR_RGB('',0.800000011920929,0.800000011920929,0.800000011920929);
#378=CARTESIAN_POINT('',(0.29468294616697,5.0,-2.4));
#379=VECTOR('',#532,1.0);
#380=PRE_DEFINED_MARKER('');
#381=COLOUR_RGB('',0.800000011920929,0.800000011920929,0.800000011920929);
#382=DRAUGHTING_PRE_DEFINED_CURVE_FONT('continuous');
#383=COLOUR_RGB('',0.800000011920929,0.800000011920929,0.800000011920929);
#384=CARTESIAN_POINT('',(9.99991200956174E-011,5.0,0.0));
#385=VECTOR('',#533,1.0);
#386=PRE_DEFINED_MARKER('');
#387=COLOUR_RGB('',0.800000011920929,0.800000011920929,0.800000011920929);
#388=SURFACE_SIDE_STYLE('',(#534));
#389=EDGE_LOOP('',(#535,#536,#537,#538));
#390=AXIS2_PLACEMENT_3D('',#539,#540,#541);
#391=PRE_DEFINED_MARKER('');
#392=COLOUR_RGB('',0.800000011920929,0.800000011920929,0.800000011920929);
#393=PRE_DEFINED_MARKER('');
#394=COLOUR_RGB('',0.800000011920929,0.800000011920929,0.800000011920929);
#395=SURFACE_SIDE_STYLE('',(#542));
#396=EDGE_LOOP('',(#543,#544,#545,#546));
#397=AXIS2_PLACEMENT_3D('',#547,#548,#549);
#398=PRE_DEFINED_MARKER('');
#399=COLOUR_RGB('',0.800000011920929,0.800000011920929,0.800000011920929);
#400=DRAUGHTING_PRE_DEFINED_CURVE_FONT('continuous');
#401=COLOUR_RGB('',0.800000011920929,0.800000011920929,0.800000011920929);
#402=AXIS2_PLACEMENT_3D('',#550,#551,#552);
#403=DRAUGHTING_PRE_DEFINED_CURVE_FONT('continuous');
#404=COLOUR_RGB('',0.800000011920929,0.800000011920929,0.800000011920929);
#405=CARTESIAN_POINT('',(0.4,0.0,0.0));
#406=VECTOR('',#553,1.0);
#407=SURFACE_SIDE_STYLE('',(#554));
#408=SURFACE_SIDE_STYLE('',(#555));
#409=EDGE_LOOP('',(#556,#557,#558,#559,#560,#561,#562,#563));
#410=AXIS2_PLACEMENT_3D('',#564,#565,#566);
#411=DRAUGHTING_PRE_DEFINED_CURVE_FONT('continuous');
#412=COLOUR_RGB('',0.800000011920929,0.800000011920929,0.800000011920929);
#413=CARTESIAN_POINT('',(5.0,5.10531705383303,-2.4));
#414=VECTOR('',#567,1.0);
#415=DRAUGHTING_PRE_DEFINED_CURVE_FONT('continuous');
#416=COLOUR_RGB('',0.800000011920929,0.800000011920929,0.800000011920929);
#417=CARTESIAN_POINT('',(5.0,0.0,0.0));
#418=VECTOR('',#568,1.0);
#419=DRAUGHTING_PRE_DEFINED_CURVE_FONT('continuous');
#420=COLOUR_RGB('',0.800000011920929,0.800000011920929,0.800000011920929);
#421=AXIS2_PLACEMENT_3D('',#569,#570,#571);
#422=SURFACE_SIDE_STYLE('',(#572));
#423=EDGE_LOOP('',(#573,#574,#575,#576));
#424=AXIS2_PLACEMENT_3D('',#577,#578,#579);
#425=DRAUGHTING_PRE_DEFINED_CURVE_FONT('continuous');
#426=COLOUR_RGB('',0.800000011920929,0.800000011920929,0.800000011920929);
#427=AXIS2_PLACEMENT_3D('',#580,#581,#582);
#428=PRE_DEFINED_MARKER('');
#429=COLOUR_RGB('',0.800000011920929,0.800000011920929,0.800000011920929);
#430=PRE_DEFINED_MARKER('');
#431=COLOUR_RGB('',0.800000011920929,0.800000011920929,0.800000011920929);
#432=PRE_DEFINED_MARKER('');
#433=COLOUR_RGB('',0.800000011920929,0.800000011920929,0.800000011920929);
#434=DRAUGHTING_PRE_DEFINED_CURVE_FONT('continuous');
#435=COLOUR_RGB('',0.800000011920929,0.800000011920929,0.800000011920929);
#436=CARTESIAN_POINT('',(5.0,5.4,0.0));
#437=VECTOR('',#583,1.0);
#438=PRE_DEFINED_MARKER('');
#439=COLOUR_RGB('',0.800000011920929,0.800000011920929,0.800000011920929);
#440=DRAUGHTING_PRE_DEFINED_CURVE_FONT('continuous');
#441=COLOUR_RGB('',0.800000011920929,0.800000011920929,0.800000011920929);
#442=CARTESIAN_POINT('',(0.0,0.4,0.0));
#443=VECTOR('',#584,1.0);
#444=DRAUGHTING_PRE_DEFINED_CURVE_FONT('continuous');
#445=COLOUR_RGB('',0.800000011920929,0.800000011920929,0.800000011920929);
#446=CARTESIAN_POINT('',(0.0,5.0,0.0));
#447=VECTOR('',#585,1.0);
#448=PRE_DEFINED_MARKER('');
#449=COLOUR_RGB('',0.800000011920929,0.800000011920929,0.800000011920929);
#450=DRAUGHTING_PRE_DEFINED_CURVE_FONT('continuous');
#451=COLOUR_RGB('',0.800000011920929,0.800000011920929,0.800000011920929);
#452=CARTESIAN_POINT('',(0.4,0.0,0.0));
#453=VECTOR('',#586,1.0);
#454=DRAUGHTING_PRE_DEFINED_CURVE_FONT('continuous');
#455=COLOUR_RGB('',0.800000011920929,0.800000011920929,0.800000011920929);
#456=CARTESIAN_POINT('',(0.4,0.29468294616697,-2.4));
#457=VECTOR('',#587,1.0);
#458=DRAUGHTING_PRE_DEFINED_CURVE_FONT('continuous');
#459=COLOUR_RGB('',0.800000011920929,0.800000011920929,0.800000011920929);
#460=AXIS2_PLACEMENT_3D('',#588,#589,#590);
#462=SURFACE_STYLE_FILL_AREA(#591);
#463=ORIENTED_EDGE('',*,*,#153,.T.);
#464=ORIENTED_EDGE('',*,*,#107,.F.);
#465=ORIENTED_EDGE('',*,*,#85,.F.);
#466=ORIENTED_EDGE('',*,*,#147,.T.);
#467=CARTESIAN_POINT('',(4.9999999999,0.4000000001,0.0));
#468=DIRECTION('',(-0.0,-0.0,1.0));
#469=DIRECTION('',(2.50000020685093E-010,-1.0,0.0));
#470=DIRECTION('',(-0.121869343445889,-3.04677489311096E-011,-0.99254615163632));
#471=CARTESIAN_POINT('',(4.9999999999,0.4000000001,0.0));
#472=DIRECTION('',(0.0,0.0,1.0));
#473=DIRECTION('',(2.50000020685093E-010,-1.0,0.0));
#474=SURFACE_STYLE_FILL_AREA(#592);
#475=ORIENTED_EDGE('',*,*,#153,.F.);
#476=ORIENTED_EDGE('',*,*,#173,.F.);
#477=ORIENTED_EDGE('',*,*,#149,.F.);
#478=ORIENTED_EDGE('',*,*,#119,.F.);
#479=ORIENTED_EDGE('',*,*,#101,.F.);
#480=ORIENTED_EDGE('',*,*,#145,.F.);
#481=ORIENTED_EDGE('',*,*,#111,.F.);
#482=ORIENTED_EDGE('',*,*,#109,.F.);
#483=CARTESIAN_POINT('',(2.7,2.7,-2.4));
#484=DIRECTION('',(0.0,0.0,1.0));
#485=DIRECTION('',(1.0,0.0,0.0));
#486=SURFACE_STYLE_FILL_AREA(#593);
#487=ORIENTED_EDGE('',*,*,#111,.T.);
#488=ORIENTED_EDGE('',*,*,#115,.F.);
#489=ORIENTED_EDGE('',*,*,#175,.F.);
#490=ORIENTED_EDGE('',*,*,#83,.T.);
#491=CARTESIAN_POINT('',(4.9999999999,4.9999999999,0.0));
#492=DIRECTION('',(-0.0,-0.0,1.0));
#493=DIRECTION('',(1.0,2.50002241131141E-010,0.0));
#494=DIRECTION('',(3.04673357007631E-011,-0.121869343445889,-0.99254615163632));
#495=DIRECTION('',(0.0,1.0,0.0));
#496=CARTESIAN_POINT('',(0.4000000001,4.9999999999,-2.4));
#497=DIRECTION('',(0.0,0.0,1.0));
#498=DIRECTION('',(-2.50001269685995E-010,1.0,0.0));
#499=SURFACE_STYLE_FILL_AREA(#594);
#500=ORIENTED_EDGE('',*,*,#101,.T.);
#501=ORIENTED_EDGE('',*,*,#123,.F.);
#502=ORIENTED_EDGE('',*,*,#117,.F.);
#503=ORIENTED_EDGE('',*,*,#95,.T.);
#504=CARTESIAN_POINT('',(0.4000000001,4.9999999999,0.0));
#505=DIRECTION('',(-0.0,-0.0,1.0));
#506=DIRECTION('',(-2.50001269685995E-010,1.0,0.0));
#507=SURFACE_STYLE_FILL_AREA(#595);
#508=ORIENTED_EDGE('',*,*,#109,.T.);
#509=ORIENTED_EDGE('',*,*,#83,.F.);
#510=ORIENTED_EDGE('',*,*,#99,.F.);
#511=ORIENTED_EDGE('',*,*,#107,.T.);
#512=CARTESIAN_POINT('',(5.3999999999,0.4,0.0));
#513=DIRECTION('',(0.992546151646325,-0.0,-0.121869343364406));
#514=DIRECTION('',(-0.0,-1.0,0.0));
#515=DIRECTION('',(-0.121869343364406,0.0,-0.992546151646325));
#516=DIRECTION('',(0.0,1.0,0.0));
#517=CARTESIAN_POINT('',(4.9999999999,4.9999999999,-2.4));
#518=DIRECTION('',(0.0,-0.0,1.0));
#519=DIRECTION('',(1.0,2.50002241131141E-010,0.0));
#520=SURFACE_STYLE_FILL_AREA(#596);
#521=ORIENTED_EDGE('',*,*,#145,.T.);
#522=ORIENTED_EDGE('',*,*,#95,.F.);
#523=ORIENTED_EDGE('',*,*,#161,.F.);
#524=ORIENTED_EDGE('',*,*,#115,.T.);
#525=CARTESIAN_POINT('',(5.0,5.3999999999,0.0));
#526=DIRECTION('',(0.0,0.992546151646325,-0.121869343364405));
#527=DIRECTION('',(1.0,-0.0,0.0));
#528=DIRECTION('',(0.0,-0.121869343364405,-0.992546151646325));
#529=CARTESIAN_POINT('',(0.4000000001,4.9999999999,0.0));
#530=DIRECTION('',(0.0,0.0,1.0));
#531=DIRECTION('',(-2.50001269685995E-010,1.0,0.0));
#532=DIRECTION('',(0.0,-1.0,0.0));
#533=DIRECTION('',(0.121869343364406,0.0,-0.992546151646325));
#534=SURFACE_STYLE_FILL_AREA(#597);
#535=ORIENTED_EDGE('',*,*,#173,.T.);
#536=ORIENTED_EDGE('',*,*,#147,.F.);
#537=ORIENTED_EDGE('',*,*,#139,.F.);
#538=ORIENTED_EDGE('',*,*,#171,.T.);
#539=CARTESIAN_POINT('',(0.4,0.0,0.0));
#540=DIRECTION('',(-0.0,-0.992546151641322,-0.121869343405147));
#541=DIRECTION('',(-1.0,0.0,0.0));
#542=SURFACE_STYLE_FILL_AREA(#598);
#543=ORIENTED_EDGE('',*,*,#149,.T.);
#544=ORIENTED_EDGE('',*,*,#171,.F.);
#545=ORIENTED_EDGE('',*,*,#137,.F.);
#546=ORIENTED_EDGE('',*,*,#165,.T.);
#547=CARTESIAN_POINT('',(0.4000000001,0.4000000001,0.0));
#548=DIRECTION('',(0.0,-0.0,1.0));
#549=DIRECTION('',(-1.0,-2.49998494128434E-010,0.0));
#550=CARTESIAN_POINT('',(0.4000000001,0.4000000001,0.0));
#551=DIRECTION('',(0.0,0.0,1.0));
#552=DIRECTION('',(-1.0,-2.49998494128434E-010,0.0));
#553=DIRECTION('',(1.0,0.0,0.0));
#554=SURFACE_STYLE_FILL_AREA(#599);
#555=SURFACE_STYLE_FILL_AREA(#600);
#556=ORIENTED_EDGE('',*,*,#139,.T.);
#557=ORIENTED_EDGE('',*,*,#85,.T.);
#558=ORIENTED_EDGE('',*,*,#99,.T.);
#559=ORIENTED_EDGE('',*,*,#175,.T.);
#560=ORIENTED_EDGE('',*,*,#161,.T.);
#561=ORIENTED_EDGE('',*,*,#117,.T.);
#562=ORIENTED_EDGE('',*,*,#167,.T.);
#563=ORIENTED_EDGE('',*,*,#137,.T.);
#564=CARTESIAN_POINT('',(2.7,2.7,0.0));
#565=DIRECTION('',(0.0,0.0,1.0));
#566=DIRECTION('',(1.0,0.0,0.0));
#567=DIRECTION('',(-1.0,0.0,0.0));
#568=DIRECTION('',(-3.04670142993826E-011,0.121869343445889,-0.99254615163632));
#569=CARTESIAN_POINT('',(0.4000000001,0.4000000001,-2.4));
#570=DIRECTION('',(0.0,0.0,1.0));
#571=DIRECTION('',(-1.0,-2.49998494128434E-010,0.0));
#572=SURFACE_STYLE_FILL_AREA(#601);
#573=ORIENTED_EDGE('',*,*,#119,.T.);
#574=ORIENTED_EDGE('',*,*,#165,.F.);
#575=ORIENTED_EDGE('',*,*,#167,.F.);
#576=ORIENTED_EDGE('',*,*,#123,.T.);
#577=CARTESIAN_POINT('',(9.99991200956174E-011,5.0,0.0));
#578=DIRECTION('',(-0.992546151646325,0.0,-0.121869343364406));
#579=DIRECTION('',(0.0,1.0,0.0));
#580=CARTESIAN_POINT('',(4.9999999999,0.4000000001,-2.4));
#581=DIRECTION('',(0.0,0.0,1.0));
#582=DIRECTION('',(2.50000020685093E-010,-1.0,0.0));
#583=DIRECTION('',(-1.0,0.0,0.0));
#584=DIRECTION('',(0.121869343445889,3.04671979573143E-011,-0.99254615163632));
#585=DIRECTION('',(0.0,-1.0,0.0));
#586=DIRECTION('',(0.0,0.121869343405147,-0.992546151641322));
#587=DIRECTION('',(1.0,0.0,0.0));
#588=CARTESIAN_POINT('',(4.9999999999,4.9999999999,0.0));
#589=DIRECTION('',(0.0,-0.0,1.0));
#590=DIRECTION('',(1.0,2.50002241131141E-010,0.0));
#591=FILL_AREA_STYLE('',(#602));
#592=FILL_AREA_STYLE('',(#603));
#593=FILL_AREA_STYLE('',(#604));
#594=FILL_AREA_STYLE('',(#605));
#595=FILL_AREA_STYLE('',(#606));
#596=FILL_AREA_STYLE('',(#607));
#597=FILL_AREA_STYLE('',(#608));
#598=FILL_AREA_STYLE('',(#609));
#599=FILL_AREA_STYLE('',(#610));
#600=FILL_AREA_STYLE('',(#611));
#601=FILL_AREA_STYLE('',(#612));
#602=FILL_AREA_STYLE_COLOUR('',#613);
#603=FILL_AREA_STYLE_COLOUR('',#614);
#604=FILL_AREA_STYLE_COLOUR('',#615);
#605=FILL_AREA_STYLE_COLOUR('',#616);
#606=FILL_AREA_STYLE_COLOUR('',#617);
#607=FILL_AREA_STYLE_COLOUR('',#618);
#608=FILL_AREA_STYLE_COLOUR('',#619);
#609=FILL_AREA_STYLE_COLOUR('',#620);
#610=FILL_AREA_STYLE_COLOUR('',#621);
#611=FILL_AREA_STYLE_COLOUR('',#622);
#612=FILL_AREA_STYLE_COLOUR('',#623);
#613=COLOUR_RGB('',0.800000011920929,0.800000011920929,0.800000011920929);
#614=COLOUR_RGB('',0.800000011920929,0.800000011920929,0.800000011920929);
#615=COLOUR_RGB('',0.800000011920929,0.800000011920929,0.800000011920929);
#616=COLOUR_RGB('',0.800000011920929,0.800000011920929,0.800000011920929);
#617=COLOUR_RGB('',0.800000011920929,0.800000011920929,0.800000011920929);
#618=COLOUR_RGB('',0.800000011920929,0.800000011920929,0.800000011920929);
#619=COLOUR_RGB('',0.800000011920929,0.800000011920929,0.800000011920929);
#620=COLOUR_RGB('',0.800000011920929,0.800000011920929,0.800000011920929);
#621=COLOUR_RGB('',0.800000011920929,0.800000011920929,0.800000011920929);
#622=COLOUR_RGB('',0.800000011920929,0.800000011920929,0.800000011920929);
#623=COLOUR_RGB('',0.800000011920929,0.800000011920929,0.800000011920929);
#624=AXIS2_PLACEMENT_3D('PCS',#625,#626,#627);
#625=CARTESIAN_POINT('',(0.0,0.0,0.0));
#626=DIRECTION('',(0.0,0.0,1.0));
#627=DIRECTION('',(1.0,0.0,0.0));
#628=AXIS2_PLACEMENT_3D('MCS',#629,#630,#631);
#629=CARTESIAN_POINT('',(2.7,2.7,0.0));
#630=DIRECTION('',(0.0,0.0,1.0));
#631=DIRECTION('',(1.0,0.0,0.0));
#632=CONSTRUCTIVE_GEOMETRY_REPRESENTATION_RELATIONSHIP('coordinate systems',$,#65,#633);
#633=CONSTRUCTIVE_GEOMETRY_REPRESENTATION('coordinate systems',(#624,#628),#6);
ENDSEC;
END-ISO-10303-21;
