ISO-10303-21;
HEADER;
FILE_DESCRIPTION(('no description'),'unknown implementation level');
FILE_NAME('solidKqrvOe699kFz34oV41UbNSI3AI8_1.STP','  ',('CIMSOURCE GmbH'),('CADClick - KiM GmbH - www.kimweb.de'),'unknown preprocess','ACIS','unknown authorization');
FILE_SCHEMA(('automotive_design'));
ENDSEC;
DATA;
#1=MECHANICAL_DESIGN_GEOMETRIC_PRESENTATION_REPRESENTATION(' ',(#10,#11,#12,#13,#14,#15,#16,#17,#18,#19,#20,#21,#22,#23,#24,#25,#26,#27,#28,#29,#30,#31,#32,#33,#34,#35,#36,#37,#38,#39,#40,#41,#42,#43,#44,#45,#46,#47,#48,#49,#50,#51,#52,#53,#54,#55,#56,#57,#58,#59,#60),#6);
#2=PRODUCT_DEFINITION_CONTEXT('',#61,'design');
#3=APPLICATION_PROTOCOL_DEFINITION('INTERNATIONAL STANDARD','automotive_design',1994,#61);
#4=PRODUCT_CATEGORY_RELATIONSHIP('NONE','NONE',#62,#63);
#5=SHAPE_DEFINITION_REPRESENTATION(#64,#65);
#6= (GEOMETRIC_REPRESENTATION_CONTEXT(3)GLOBAL_UNCERTAINTY_ASSIGNED_CONTEXT((#68))GLOBAL_UNIT_ASSIGNED_CONTEXT((#70,#71,#72))REPRESENTATION_CONTEXT('NONE','WORKSPACE'));
#10=STYLED_ITEM('',(#74),#75);
#11=STYLED_ITEM('',(#76),#77);
#12=STYLED_ITEM('',(#78),#79);
#13=STYLED_ITEM('',(#80),#81);
#14=STYLED_ITEM('',(#82),#83);
#15=STYLED_ITEM('',(#84),#85);
#16=STYLED_ITEM('',(#86),#87);
#17=STYLED_ITEM('',(#88),#89);
#18=STYLED_ITEM('',(#90),#91);
#19=STYLED_ITEM('',(#92),#93);
#20=STYLED_ITEM('',(#94),#95);
#21=STYLED_ITEM('',(#96),#97);
#22=STYLED_ITEM('',(#98),#99);
#23=STYLED_ITEM('',(#100),#101);
#24=STYLED_ITEM('',(#102),#103);
#25=STYLED_ITEM('',(#104),#105);
#26=STYLED_ITEM('',(#106),#107);
#27=STYLED_ITEM('',(#108),#109);
#28=STYLED_ITEM('',(#110),#111);
#29=STYLED_ITEM('',(#112),#113);
#30=STYLED_ITEM('',(#114),#115);
#31=STYLED_ITEM('',(#116),#117);
#32=STYLED_ITEM('',(#118),#119);
#33=STYLED_ITEM('',(#120),#121);
#34=STYLED_ITEM('',(#122),#123);
#35=STYLED_ITEM('',(#124),#125);
#36=STYLED_ITEM('',(#126),#127);
#37=STYLED_ITEM('',(#128),#129);
#38=STYLED_ITEM('',(#130),#131);
#39=STYLED_ITEM('',(#132),#133);
#40=STYLED_ITEM('',(#134),#135);
#41=STYLED_ITEM('',(#136),#137);
#42=STYLED_ITEM('',(#138),#139);
#43=STYLED_ITEM('',(#140),#141);
#44=STYLED_ITEM('',(#142),#143);
#45=STYLED_ITEM('',(#144),#145);
#46=STYLED_ITEM('',(#146),#147);
#47=STYLED_ITEM('',(#148),#149);
#48=STYLED_ITEM('',(#150),#151);
#49=STYLED_ITEM('',(#152),#153);
#50=STYLED_ITEM('',(#154),#155);
#51=STYLED_ITEM('',(#156),#157);
#52=STYLED_ITEM('',(#158),#159);
#53=STYLED_ITEM('',(#160),#161);
#54=STYLED_ITEM('',(#162),#163);
#55=STYLED_ITEM('',(#164),#165);
#56=STYLED_ITEM('',(#166),#167);
#57=STYLED_ITEM('',(#168),#169);
#58=STYLED_ITEM('',(#170),#171);
#59=STYLED_ITEM('',(#172),#173);
#60=STYLED_ITEM('',(#174),#175);
#61=APPLICATION_CONTEXT(' ');
#62=PRODUCT_CATEGORY('part','NONE');
#63=PRODUCT_RELATED_PRODUCT_CATEGORY('detail',' ',(#176));
#64=PRODUCT_DEFINITION_SHAPE('NONE','NONE',#177);
#65=ADVANCED_BREP_SHAPE_REPRESENTATION('1',(#79,#178),#6);
#68=UNCERTAINTY_MEASURE_WITH_UNIT(LENGTH_MEASURE(1.0E-006),#70,'','');
#70= (CONVERSION_BASED_UNIT('MILLIMETRE',#181)LENGTH_UNIT()NAMED_UNIT(#184));
#71= (NAMED_UNIT(#186)PLANE_ANGLE_UNIT()SI_UNIT($,.RADIAN.));
#72= (NAMED_UNIT(#186)SOLID_ANGLE_UNIT()SI_UNIT($,.STERADIAN.));
#74=PRESENTATION_STYLE_ASSIGNMENT((#192));
#75=VERTEX_POINT('',#193);
#76=PRESENTATION_STYLE_ASSIGNMENT((#194));
#77=VERTEX_POINT('',#195);
#78=PRESENTATION_STYLE_ASSIGNMENT((#196));
#79=MANIFOLD_SOLID_BREP('1',#197);
#80=PRESENTATION_STYLE_ASSIGNMENT((#198));
#81=ADVANCED_FACE('',(#199),#200,.T.);
#82=PRESENTATION_STYLE_ASSIGNMENT((#201));
#83=EDGE_CURVE('',#95,#141,#202,.T.);
#84=PRESENTATION_STYLE_ASSIGNMENT((#203));
#85=ADVANCED_FACE('',(#204),#205,.T.);
#86=PRESENTATION_STYLE_ASSIGNMENT((#206));
#87=EDGE_CURVE('',#161,#153,#207,.T.);
#88=PRESENTATION_STYLE_ASSIGNMENT((#208));
#89=VERTEX_POINT('',#209);
#90=PRESENTATION_STYLE_ASSIGNMENT((#210));
#91=ADVANCED_FACE('',(#211),#212,.T.);
#92=PRESENTATION_STYLE_ASSIGNMENT((#213));
#93=EDGE_CURVE('',#129,#151,#214,.T.);
#94=PRESENTATION_STYLE_ASSIGNMENT((#215));
#95=VERTEX_POINT('',#216);
#96=PRESENTATION_STYLE_ASSIGNMENT((#217));
#97=ADVANCED_FACE('',(#218),#219,.F.);
#98=PRESENTATION_STYLE_ASSIGNMENT((#220));
#99=EDGE_CURVE('',#75,#77,#221,.T.);
#100=PRESENTATION_STYLE_ASSIGNMENT((#222));
#101=EDGE_CURVE('',#89,#159,#223,.T.);
#102=PRESENTATION_STYLE_ASSIGNMENT((#224));
#103=EDGE_CURVE('',#133,#89,#225,.T.);
#104=PRESENTATION_STYLE_ASSIGNMENT((#226));
#105=EDGE_CURVE('',#113,#175,#227,.T.);
#106=PRESENTATION_STYLE_ASSIGNMENT((#228));
#107=ADVANCED_FACE('',(#229),#230,.T.);
#108=PRESENTATION_STYLE_ASSIGNMENT((#231));
#109=ADVANCED_FACE('',(#232),#233,.T.);
#110=PRESENTATION_STYLE_ASSIGNMENT((#234));
#111=EDGE_CURVE('',#139,#95,#235,.T.);
#112=PRESENTATION_STYLE_ASSIGNMENT((#236));
#113=VERTEX_POINT('',#237);
#114=PRESENTATION_STYLE_ASSIGNMENT((#238));
#115=EDGE_CURVE('',#77,#113,#239,.T.);
#116=PRESENTATION_STYLE_ASSIGNMENT((#240));
#117=EDGE_CURVE('',#169,#139,#241,.T.);
#118=PRESENTATION_STYLE_ASSIGNMENT((#242));
#119=EDGE_CURVE('',#125,#129,#243,.T.);
#120=PRESENTATION_STYLE_ASSIGNMENT((#244));
#121=EDGE_CURVE('',#133,#175,#245,.T.);
#122=PRESENTATION_STYLE_ASSIGNMENT((#246));
#123=EDGE_CURVE('',#75,#153,#247,.T.);
#124=PRESENTATION_STYLE_ASSIGNMENT((#248));
#125=VERTEX_POINT('',#249);
#126=PRESENTATION_STYLE_ASSIGNMENT((#250));
#127=EDGE_CURVE('',#129,#141,#251,.T.);
#128=PRESENTATION_STYLE_ASSIGNMENT((#252));
#129=VERTEX_POINT('',#253);
#130=PRESENTATION_STYLE_ASSIGNMENT((#254));
#131=EDGE_CURVE('',#175,#159,#255,.T.);
#132=PRESENTATION_STYLE_ASSIGNMENT((#256));
#133=VERTEX_POINT('',#257);
#134=PRESENTATION_STYLE_ASSIGNMENT((#258));
#135=ADVANCED_FACE('',(#259),#260,.T.);
#136=PRESENTATION_STYLE_ASSIGNMENT((#261));
#137=EDGE_CURVE('',#125,#95,#262,.T.);
#138=PRESENTATION_STYLE_ASSIGNMENT((#263));
#139=VERTEX_POINT('',#264);
#140=PRESENTATION_STYLE_ASSIGNMENT((#265));
#141=VERTEX_POINT('',#266);
#142=PRESENTATION_STYLE_ASSIGNMENT((#267));
#143=EDGE_CURVE('',#153,#113,#268,.T.);
#144=PRESENTATION_STYLE_ASSIGNMENT((#269));
#145=EDGE_CURVE('',#151,#75,#270,.T.);
#146=PRESENTATION_STYLE_ASSIGNMENT((#271));
#147=ADVANCED_FACE('',(#272),#273,.T.);
#148=PRESENTATION_STYLE_ASSIGNMENT((#274));
#149=ADVANCED_FACE('',(#275),#276,.T.);
#150=PRESENTATION_STYLE_ASSIGNMENT((#277));
#151=VERTEX_POINT('',#278);
#152=PRESENTATION_STYLE_ASSIGNMENT((#279));
#153=VERTEX_POINT('',#280);
#154=PRESENTATION_STYLE_ASSIGNMENT((#281));
#155=EDGE_CURVE('',#77,#133,#282,.T.);
#156=PRESENTATION_STYLE_ASSIGNMENT((#283));
#157=EDGE_CURVE('',#141,#161,#284,.T.);
#158=PRESENTATION_STYLE_ASSIGNMENT((#285));
#159=VERTEX_POINT('',#286);
#160=PRESENTATION_STYLE_ASSIGNMENT((#287));
#161=VERTEX_POINT('',#288);
#162=PRESENTATION_STYLE_ASSIGNMENT((#289));
#163=EDGE_CURVE('',#159,#139,#290,.T.);
#164=PRESENTATION_STYLE_ASSIGNMENT((#291));
#165=EDGE_CURVE('',#169,#125,#292,.T.);
#166=PRESENTATION_STYLE_ASSIGNMENT((#293));
#167=ADVANCED_FACE('',(#294),#295,.T.);
#168=PRESENTATION_STYLE_ASSIGNMENT((#296));
#169=VERTEX_POINT('',#297);
#170=PRESENTATION_STYLE_ASSIGNMENT((#298));
#171=EDGE_CURVE('',#89,#169,#299,.T.);
#172=PRESENTATION_STYLE_ASSIGNMENT((#300));
#173=EDGE_CURVE('',#151,#161,#301,.T.);
#174=PRESENTATION_STYLE_ASSIGNMENT((#302));
#175=VERTEX_POINT('',#303);
#176=PRODUCT('1','1','PART-1-DESC',(#304));
#177=PRODUCT_DEFINITION('NONE','NONE',#305,#2);
#178=AXIS2_PLACEMENT_3D('',#306,#307,#308);
#181=LENGTH_MEASURE_WITH_UNIT(LENGTH_MEASURE(1.0),#309);
#184=DIMENSIONAL_EXPONENTS(1.0,0.0,0.0,0.0,0.0,0.0,0.0);
#186=DIMENSIONAL_EXPONENTS(0.0,0.0,0.0,0.0,0.0,0.0,0.0);
#192=POINT_STYLE(' ',#310,POSITIVE_LENGTH_MEASURE(1.0E-006),#311);
#193=CARTESIAN_POINT('',(6.2,5.6,0.0));
#194=POINT_STYLE(' ',#312,POSITIVE_LENGTH_MEASURE(1.0E-006),#313);
#195=CARTESIAN_POINT('',(5.6,6.1999999999,0.0));
#196=SURFACE_STYLE_USAGE(.BOTH.,#314);
#197=CLOSED_SHELL('',(#109,#167,#85,#135,#107,#81,#147,#91,#97,#149));
#198=SURFACE_STYLE_USAGE(.BOTH.,#315);
#199=FACE_OUTER_BOUND('',#316,.T.);
#200=PLANE('',#317);
#201=CURVE_STYLE('',#318,POSITIVE_LENGTH_MEASURE(1.0E-006),#319);
#202=LINE('',#320,#321);
#203=SURFACE_STYLE_USAGE(.BOTH.,#322);
#204=FACE_OUTER_BOUND('',#323,.T.);
#205=CONICAL_SURFACE('',#324,0.600000000000001,0.122173047639603);
#206=CURVE_STYLE('',#325,POSITIVE_LENGTH_MEASURE(1.0E-006),#326);
#207=LINE('',#327,#328);
#208=POINT_STYLE(' ',#329,POSITIVE_LENGTH_MEASURE(1.0E-006),#330);
#209=CARTESIAN_POINT('',(1.00000452363247E-010,5.6,0.0));
#210=SURFACE_STYLE_USAGE(.BOTH.,#331);
#211=FACE_OUTER_BOUND('',#332,.T.);
#212=PLANE('',#333);
#213=CURVE_STYLE('',#334,POSITIVE_LENGTH_MEASURE(1.0E-006),#335);
#214=CIRCLE('',#336,0.6);
#215=POINT_STYLE(' ',#337,POSITIVE_LENGTH_MEASURE(1.0E-006),#338);
#216=CARTESIAN_POINT('',(0.6,0.343796770528132,-2.8));
#217=SURFACE_STYLE_USAGE(.BOTH.,#339);
#218=FACE_OUTER_BOUND('',#340,.T.);
#219=PLANE('',#341);
#220=CURVE_STYLE('',#342,POSITIVE_LENGTH_MEASURE(1.0E-006),#343);
#221=CIRCLE('',#344,0.600000000000001);
#222=CURVE_STYLE('',#345,POSITIVE_LENGTH_MEASURE(1.0E-006),#346);
#223=LINE('',#347,#348);
#224=CURVE_STYLE('',#349,POSITIVE_LENGTH_MEASURE(1.0E-006),#350);
#225=CIRCLE('',#351,0.6);
#226=CURVE_STYLE('',#352,POSITIVE_LENGTH_MEASURE(1.0E-006),#353);
#227=LINE('',#354,#355);
#228=SURFACE_STYLE_USAGE(.BOTH.,#356);
#229=FACE_OUTER_BOUND('',#357,.T.);
#230=CONICAL_SURFACE('',#358,0.6,0.122173047639603);
#231=SURFACE_STYLE_USAGE(.BOTH.,#359);
#232=FACE_OUTER_BOUND('',#360,.T.);
#233=CONICAL_SURFACE('',#361,0.6,0.122173047639603);
#234=CURVE_STYLE('',#362,POSITIVE_LENGTH_MEASURE(1.0E-006),#363);
#235=CIRCLE('',#364,0.256203229471868);
#236=POINT_STYLE(' ',#365,POSITIVE_LENGTH_MEASURE(1.0E-006),#366);
#237=CARTESIAN_POINT('',(5.6,5.85620322947187,-2.8));
#238=CURVE_STYLE('',#367,POSITIVE_LENGTH_MEASURE(1.0E-006),#368);
#239=LINE('',#369,#370);
#240=CURVE_STYLE('',#371,POSITIVE_LENGTH_MEASURE(1.0E-006),#372);
#241=LINE('',#373,#374);
#242=CURVE_STYLE('',#375,POSITIVE_LENGTH_MEASURE(1.0E-006),#376);
#243=LINE('',#377,#378);
#244=CURVE_STYLE('',#379,POSITIVE_LENGTH_MEASURE(1.0E-006),#380);
#245=LINE('',#381,#382);
#246=CURVE_STYLE('',#383,POSITIVE_LENGTH_MEASURE(1.0E-006),#384);
#247=LINE('',#385,#386);
#248=POINT_STYLE(' ',#387,POSITIVE_LENGTH_MEASURE(1.0E-006),#388);
#249=CARTESIAN_POINT('',(0.6,0.0,0.0));
#250=CURVE_STYLE('',#389,POSITIVE_LENGTH_MEASURE(1.0E-006),#390);
#251=LINE('',#391,#392);
#252=POINT_STYLE(' ',#393,POSITIVE_LENGTH_MEASURE(1.0E-006),#394);
#253=CARTESIAN_POINT('',(5.6,0.0,0.0));
#254=CURVE_STYLE('',#395,POSITIVE_LENGTH_MEASURE(1.0E-006),#396);
#255=CIRCLE('',#397,0.256203229471868);
#256=POINT_STYLE(' ',#398,POSITIVE_LENGTH_MEASURE(1.0E-006),#399);
#257=CARTESIAN_POINT('',(0.6,6.2,0.0));
#258=SURFACE_STYLE_USAGE(.BOTH.,#400);
#259=FACE_OUTER_BOUND('',#401,.T.);
#260=PLANE('',#402);
#261=CURVE_STYLE('',#403,POSITIVE_LENGTH_MEASURE(1.0E-006),#404);
#262=LINE('',#405,#406);
#263=POINT_STYLE(' ',#407,POSITIVE_LENGTH_MEASURE(1.0E-006),#408);
#264=CARTESIAN_POINT('',(0.343796770628132,0.6000000000573,-2.8));
#265=POINT_STYLE(' ',#409,POSITIVE_LENGTH_MEASURE(1.0E-006),#410);
#266=CARTESIAN_POINT('',(5.5999999999427,0.343796770628132,-2.8));
#267=CURVE_STYLE('',#411,POSITIVE_LENGTH_MEASURE(1.0E-006),#412);
#268=CIRCLE('',#413,0.256203229471868);
#269=CURVE_STYLE('',#414,POSITIVE_LENGTH_MEASURE(1.0E-006),#415);
#270=LINE('',#416,#417);
#271=SURFACE_STYLE_USAGE(.BOTH.,#418);
#272=FACE_OUTER_BOUND('',#419,.T.);
#273=CONICAL_SURFACE('',#420,0.6,0.122173047639603);
#274=SURFACE_STYLE_USAGE(.BOTH.,#421);
#275=FACE_OUTER_BOUND('',#422,.T.);
#276=PLANE('',#423);
#277=POINT_STYLE(' ',#424,POSITIVE_LENGTH_MEASURE(1.0E-006),#425);
#278=CARTESIAN_POINT('',(6.1999999999,0.6,0.0));
#279=POINT_STYLE(' ',#426,POSITIVE_LENGTH_MEASURE(1.0E-006),#427);
#280=CARTESIAN_POINT('',(5.85620322937187,5.5999999999427,-2.8));
#281=CURVE_STYLE('',#428,POSITIVE_LENGTH_MEASURE(1.0E-006),#429);
#282=LINE('',#430,#431);
#283=CURVE_STYLE('',#432,POSITIVE_LENGTH_MEASURE(1.0E-006),#433);
#284=CIRCLE('',#434,0.256203229471868);
#285=POINT_STYLE(' ',#435,POSITIVE_LENGTH_MEASURE(1.0E-006),#436);
#286=CARTESIAN_POINT('',(0.343796770528132,5.6,-2.8));
#287=POINT_STYLE(' ',#437,POSITIVE_LENGTH_MEASURE(1.0E-006),#438);
#288=CARTESIAN_POINT('',(5.85620322947187,0.6,-2.8));
#289=CURVE_STYLE('',#439,POSITIVE_LENGTH_MEASURE(1.0E-006),#440);
#290=LINE('',#441,#442);
#291=CURVE_STYLE('',#443,POSITIVE_LENGTH_MEASURE(1.0E-006),#444);
#292=CIRCLE('',#445,0.6);
#293=SURFACE_STYLE_USAGE(.BOTH.,#446);
#294=FACE_OUTER_BOUND('',#447,.T.);
#295=PLANE('',#448);
#296=POINT_STYLE(' ',#449,POSITIVE_LENGTH_MEASURE(1.0E-006),#450);
#297=CARTESIAN_POINT('',(0.0,0.600000000000001,0.0));
#298=CURVE_STYLE('',#451,POSITIVE_LENGTH_MEASURE(1.0E-006),#452);
#299=LINE('',#453,#454);
#300=CURVE_STYLE('',#455,POSITIVE_LENGTH_MEASURE(1.0E-006),#456);
#301=LINE('',#457,#458);
#302=POINT_STYLE(' ',#459,POSITIVE_LENGTH_MEASURE(1.0E-006),#460);
#303=CARTESIAN_POINT('',(0.600000000057299,5.85620322937187,-2.8));
#304=PRODUCT_CONTEXT('',#61,'mechanical');
#305=PRODUCT_DEFINITION_FORMATION_WITH_SPECIFIED_SOURCE(' ','NONE',#176,.NOT_KNOWN.);
#306=CARTESIAN_POINT('',(0.0,0.0,0.0));
#307=DIRECTION('',(0.0,0.0,1.0));
#308=DIRECTION('',(1.0,0.0,0.0));
#309= (NAMED_UNIT(#184)LENGTH_UNIT()SI_UNIT(.MILLI.,.METRE.));
#310=PRE_DEFINED_MARKER('');
#311=COLOUR_RGB('',0.800000011920929,0.800000011920929,0.800000011920929);
#312=PRE_DEFINED_MARKER('');
#313=COLOUR_RGB('',0.800000011920929,0.800000011920929,0.800000011920929);
#314=SURFACE_SIDE_STYLE('',(#462));
#315=SURFACE_SIDE_STYLE('',(#463));
#316=EDGE_LOOP('',(#464,#465,#466,#467));
#317=AXIS2_PLACEMENT_3D('',#468,#469,#470);
#318=DRAUGHTING_PRE_DEFINED_CURVE_FONT('continuous');
#319=COLOUR_RGB('',0.800000011920929,0.800000011920929,0.800000011920929);
#320=CARTESIAN_POINT('',(0.6,0.343796770528132,-2.8));
#321=VECTOR('',#471,1.0);
#322=SURFACE_SIDE_STYLE('',(#472));
#323=EDGE_LOOP('',(#473,#474,#475,#476));
#324=AXIS2_PLACEMENT_3D('',#477,#478,#479);
#325=DRAUGHTING_PRE_DEFINED_CURVE_FONT('continuous');
#326=COLOUR_RGB('',0.800000011920929,0.800000011920929,0.800000011920929);
#327=CARTESIAN_POINT('',(5.85620322947187,0.6,-2.8));
#328=VECTOR('',#480,1.0);
#329=PRE_DEFINED_MARKER('');
#330=COLOUR_RGB('',0.800000011920929,0.800000011920929,0.800000011920929);
#331=SURFACE_SIDE_STYLE('',(#481));
#332=EDGE_LOOP('',(#482,#483,#484,#485));
#333=AXIS2_PLACEMENT_3D('',#486,#487,#488);
#334=DRAUGHTING_PRE_DEFINED_CURVE_FONT('continuous');
#335=COLOUR_RGB('',0.800000011920929,0.800000011920929,0.800000011920929);
#336=AXIS2_PLACEMENT_3D('',#489,#490,#491);
#337=PRE_DEFINED_MARKER('');
#338=COLOUR_RGB('',0.800000011920929,0.800000011920929,0.800000011920929);
#339=SURFACE_SIDE_STYLE('',(#492));
#340=EDGE_LOOP('',(#493,#494,#495,#496,#497,#498,#499,#500));
#341=AXIS2_PLACEMENT_3D('',#501,#502,#503);
#342=DRAUGHTING_PRE_DEFINED_CURVE_FONT('continuous');
#343=COLOUR_RGB('',0.800000011920929,0.800000011920929,0.800000011920929);
#344=AXIS2_PLACEMENT_3D('',#504,#505,#506);
#345=DRAUGHTING_PRE_DEFINED_CURVE_FONT('continuous');
#346=COLOUR_RGB('',0.800000011920929,0.800000011920929,0.800000011920929);
#347=CARTESIAN_POINT('',(1.00000452363247E-010,5.6,0.0));
#348=VECTOR('',#507,1.0);
#349=DRAUGHTING_PRE_DEFINED_CURVE_FONT('continuous');
#350=COLOUR_RGB('',0.800000011920929,0.800000011920929,0.800000011920929);
#351=AXIS2_PLACEMENT_3D('',#508,#509,#510);
#352=DRAUGHTING_PRE_DEFINED_CURVE_FONT('continuous');
#353=COLOUR_RGB('',0.800000011920929,0.800000011920929,0.800000011920929);
#354=CARTESIAN_POINT('',(5.6,5.85620322947187,-2.8));
#355=VECTOR('',#511,1.0);
#356=SURFACE_SIDE_STYLE('',(#512));
#357=EDGE_LOOP('',(#513,#514,#515,#516));
#358=AXIS2_PLACEMENT_3D('',#517,#518,#519);
#359=SURFACE_SIDE_STYLE('',(#520));
#360=EDGE_LOOP('',(#521,#522,#523,#524));
#361=AXIS2_PLACEMENT_3D('',#525,#526,#527);
#362=DRAUGHTING_PRE_DEFINED_CURVE_FONT('continuous');
#363=COLOUR_RGB('',0.800000011920929,0.800000011920929,0.800000011920929);
#364=AXIS2_PLACEMENT_3D('',#528,#529,#530);
#365=PRE_DEFINED_MARKER('');
#366=COLOUR_RGB('',0.800000011920929,0.800000011920929,0.800000011920929);
#367=DRAUGHTING_PRE_DEFINED_CURVE_FONT('continuous');
#368=COLOUR_RGB('',0.800000011920929,0.800000011920929,0.800000011920929);
#369=CARTESIAN_POINT('',(5.6,6.1999999999,0.0));
#370=VECTOR('',#531,1.0);
#371=DRAUGHTING_PRE_DEFINED_CURVE_FONT('continuous');
#372=COLOUR_RGB('',0.800000011920929,0.800000011920929,0.800000011920929);
#373=CARTESIAN_POINT('',(0.0,0.600000000000001,0.0));
#374=VECTOR('',#532,1.0);
#375=DRAUGHTING_PRE_DEFINED_CURVE_FONT('continuous');
#376=COLOUR_RGB('',0.800000011920929,0.800000011920929,0.800000011920929);
#377=CARTESIAN_POINT('',(0.6,0.0,0.0));
#378=VECTOR('',#533,1.0);
#379=DRAUGHTING_PRE_DEFINED_CURVE_FONT('continuous');
#380=COLOUR_RGB('',0.800000011920929,0.800000011920929,0.800000011920929);
#381=CARTESIAN_POINT('',(0.6,6.2,0.0));
#382=VECTOR('',#534,1.0);
#383=DRAUGHTING_PRE_DEFINED_CURVE_FONT('continuous');
#384=COLOUR_RGB('',0.800000011920929,0.800000011920929,0.800000011920929);
#385=CARTESIAN_POINT('',(6.2,5.6,0.0));
#386=VECTOR('',#535,1.0);
#387=PRE_DEFINED_MARKER('');
#388=COLOUR_RGB('',0.800000011920929,0.800000011920929,0.800000011920929);
#389=DRAUGHTING_PRE_DEFINED_CURVE_FONT('continuous');
#390=COLOUR_RGB('',0.800000011920929,0.800000011920929,0.800000011920929);
#391=CARTESIAN_POINT('',(5.6,0.0,0.0));
#392=VECTOR('',#536,1.0);
#393=PRE_DEFINED_MARKER('');
#394=COLOUR_RGB('',0.800000011920929,0.800000011920929,0.800000011920929);
#395=DRAUGHTING_PRE_DEFINED_CURVE_FONT('continuous');
#396=COLOUR_RGB('',0.800000011920929,0.800000011920929,0.800000011920929);
#397=AXIS2_PLACEMENT_3D('',#537,#538,#539);
#398=PRE_DEFINED_MARKER('');
#399=COLOUR_RGB('',0.800000011920929,0.800000011920929,0.800000011920929);
#400=SURFACE_SIDE_STYLE('',(#540));
#401=EDGE_LOOP('',(#541,#542,#543,#544));
#402=AXIS2_PLACEMENT_3D('',#545,#546,#547);
#403=DRAUGHTING_PRE_DEFINED_CURVE_FONT('continuous');
#404=COLOUR_RGB('',0.800000011920929,0.800000011920929,0.800000011920929);
#405=CARTESIAN_POINT('',(0.6,0.0,0.0));
#406=VECTOR('',#548,1.0);
#407=PRE_DEFINED_MARKER('');
#408=COLOUR_RGB('',0.800000011920929,0.800000011920929,0.800000011920929);
#409=PRE_DEFINED_MARKER('');
#410=COLOUR_RGB('',0.800000011920929,0.800000011920929,0.800000011920929);
#411=DRAUGHTING_PRE_DEFINED_CURVE_FONT('continuous');
#412=COLOUR_RGB('',0.800000011920929,0.800000011920929,0.800000011920929);
#413=AXIS2_PLACEMENT_3D('',#549,#550,#551);
#414=DRAUGHTING_PRE_DEFINED_CURVE_FONT('continuous');
#415=COLOUR_RGB('',0.800000011920929,0.800000011920929,0.800000011920929);
#416=CARTESIAN_POINT('',(6.2,0.6,0.0));
#417=VECTOR('',#552,1.0);
#418=SURFACE_SIDE_STYLE('',(#553));
#419=EDGE_LOOP('',(#554,#555,#556,#557));
#420=AXIS2_PLACEMENT_3D('',#558,#559,#560);
#421=SURFACE_SIDE_STYLE('',(#561));
#422=EDGE_LOOP('',(#562,#563,#564,#565,#566,#567,#568,#569));
#423=AXIS2_PLACEMENT_3D('',#570,#571,#572);
#424=PRE_DEFINED_MARKER('');
#425=COLOUR_RGB('',0.800000011920929,0.800000011920929,0.800000011920929);
#426=PRE_DEFINED_MARKER('');
#427=COLOUR_RGB('',0.800000011920929,0.800000011920929,0.800000011920929);
#428=DRAUGHTING_PRE_DEFINED_CURVE_FONT('continuous');
#429=COLOUR_RGB('',0.800000011920929,0.800000011920929,0.800000011920929);
#430=CARTESIAN_POINT('',(5.6,6.2,0.0));
#431=VECTOR('',#573,1.0);
#432=DRAUGHTING_PRE_DEFINED_CURVE_FONT('continuous');
#433=COLOUR_RGB('',0.800000011920929,0.800000011920929,0.800000011920929);
#434=AXIS2_PLACEMENT_3D('',#574,#575,#576);
#435=PRE_DEFINED_MARKER('');
#436=COLOUR_RGB('',0.800000011920929,0.800000011920929,0.800000011920929);
#437=PRE_DEFINED_MARKER('');
#438=COLOUR_RGB('',0.800000011920929,0.800000011920929,0.800000011920929);
#439=DRAUGHTING_PRE_DEFINED_CURVE_FONT('continuous');
#440=COLOUR_RGB('',0.800000011920929,0.800000011920929,0.800000011920929);
#441=CARTESIAN_POINT('',(0.343796770528132,5.6,-2.8));
#442=VECTOR('',#577,1.0);
#443=DRAUGHTING_PRE_DEFINED_CURVE_FONT('continuous');
#444=COLOUR_RGB('',0.800000011920929,0.800000011920929,0.800000011920929);
#445=AXIS2_PLACEMENT_3D('',#578,#579,#580);
#446=SURFACE_SIDE_STYLE('',(#581));
#447=EDGE_LOOP('',(#582,#583,#584,#585));
#448=AXIS2_PLACEMENT_3D('',#586,#587,#588);
#449=PRE_DEFINED_MARKER('');
#450=COLOUR_RGB('',0.800000011920929,0.800000011920929,0.800000011920929);
#451=DRAUGHTING_PRE_DEFINED_CURVE_FONT('continuous');
#452=COLOUR_RGB('',0.800000011920929,0.800000011920929,0.800000011920929);
#453=CARTESIAN_POINT('',(0.0,5.6,0.0));
#454=VECTOR('',#589,1.0);
#455=DRAUGHTING_PRE_DEFINED_CURVE_FONT('continuous');
#456=COLOUR_RGB('',0.800000011920929,0.800000011920929,0.800000011920929);
#457=CARTESIAN_POINT('',(6.1999999999,0.6,0.0));
#458=VECTOR('',#590,1.0);
#459=PRE_DEFINED_MARKER('');
#460=COLOUR_RGB('',0.800000011920929,0.800000011920929,0.800000011920929);
#462=SURFACE_STYLE_FILL_AREA(#591);
#463=SURFACE_STYLE_FILL_AREA(#592);
#464=ORIENTED_EDGE('',*,*,#163,.T.);
#465=ORIENTED_EDGE('',*,*,#117,.F.);
#466=ORIENTED_EDGE('',*,*,#171,.F.);
#467=ORIENTED_EDGE('',*,*,#101,.T.);
#468=CARTESIAN_POINT('',(1.00000452363247E-010,5.6,0.0));
#469=DIRECTION('',(-0.99254615164561,0.0,-0.121869343370225));
#470=DIRECTION('',(0.0,1.0,0.0));
#471=DIRECTION('',(1.0,0.0,0.0));
#472=SURFACE_STYLE_FILL_AREA(#593);
#473=ORIENTED_EDGE('',*,*,#143,.T.);
#474=ORIENTED_EDGE('',*,*,#115,.F.);
#475=ORIENTED_EDGE('',*,*,#99,.F.);
#476=ORIENTED_EDGE('',*,*,#123,.T.);
#477=CARTESIAN_POINT('',(5.5999999999,5.5999999999,0.0));
#478=DIRECTION('',(-0.0,-0.0,1.0));
#479=DIRECTION('',(1.0,1.66666680456728E-010,0.0));
#480=DIRECTION('',(0.0,1.0,0.0));
#481=SURFACE_STYLE_FILL_AREA(#594);
#482=ORIENTED_EDGE('',*,*,#83,.T.);
#483=ORIENTED_EDGE('',*,*,#127,.F.);
#484=ORIENTED_EDGE('',*,*,#119,.F.);
#485=ORIENTED_EDGE('',*,*,#137,.T.);
#486=CARTESIAN_POINT('',(0.6,0.0,0.0));
#487=DIRECTION('',(-0.0,-0.992546151641322,-0.121869343405147));
#488=DIRECTION('',(-1.0,0.0,0.0));
#489=CARTESIAN_POINT('',(5.5999999999,0.6000000001,0.0));
#490=DIRECTION('',(0.0,0.0,1.0));
#491=DIRECTION('',(1.66666680456729E-010,-1.0,0.0));
#492=SURFACE_STYLE_FILL_AREA(#595);
#493=ORIENTED_EDGE('',*,*,#157,.F.);
#494=ORIENTED_EDGE('',*,*,#83,.F.);
#495=ORIENTED_EDGE('',*,*,#111,.F.);
#496=ORIENTED_EDGE('',*,*,#163,.F.);
#497=ORIENTED_EDGE('',*,*,#131,.F.);
#498=ORIENTED_EDGE('',*,*,#105,.F.);
#499=ORIENTED_EDGE('',*,*,#143,.F.);
#500=ORIENTED_EDGE('',*,*,#87,.F.);
#501=CARTESIAN_POINT('',(3.1,3.1,-2.8));
#502=DIRECTION('',(0.0,0.0,1.0));
#503=DIRECTION('',(1.0,0.0,0.0));
#504=CARTESIAN_POINT('',(5.5999999999,5.5999999999,0.0));
#505=DIRECTION('',(0.0,-0.0,1.0));
#506=DIRECTION('',(1.0,1.66666680456728E-010,0.0));
#507=DIRECTION('',(0.121869343370225,0.0,-0.99254615164561));
#508=CARTESIAN_POINT('',(0.6000000001,5.5999999999,0.0));
#509=DIRECTION('',(0.0,0.0,1.0));
#510=DIRECTION('',(-1.6666705053107E-010,1.0,0.0));
#511=DIRECTION('',(-1.0,0.0,0.0));
#512=SURFACE_STYLE_FILL_AREA(#596);
#513=ORIENTED_EDGE('',*,*,#131,.T.);
#514=ORIENTED_EDGE('',*,*,#101,.F.);
#515=ORIENTED_EDGE('',*,*,#103,.F.);
#516=ORIENTED_EDGE('',*,*,#121,.T.);
#517=CARTESIAN_POINT('',(0.6000000001,5.5999999999,0.0));
#518=DIRECTION('',(-0.0,-0.0,1.0));
#519=DIRECTION('',(-1.6666705053107E-010,1.0,0.0));
#520=SURFACE_STYLE_FILL_AREA(#597);
#521=ORIENTED_EDGE('',*,*,#157,.T.);
#522=ORIENTED_EDGE('',*,*,#173,.F.);
#523=ORIENTED_EDGE('',*,*,#93,.F.);
#524=ORIENTED_EDGE('',*,*,#127,.T.);
#525=CARTESIAN_POINT('',(5.5999999999,0.6000000001,0.0));
#526=DIRECTION('',(-0.0,-0.0,1.0));
#527=DIRECTION('',(1.66666680456729E-010,-1.0,0.0));
#528=CARTESIAN_POINT('',(0.6000000001,0.6000000001,-2.8));
#529=DIRECTION('',(0.0,0.0,1.0));
#530=DIRECTION('',(-1.0,-1.66666310382387E-010,0.0));
#531=DIRECTION('',(0.0,-0.121869343370226,-0.99254615164561));
#532=DIRECTION('',(0.121869343440069,2.03114915417382E-011,-0.992546151637034));
#533=DIRECTION('',(1.0,0.0,0.0));
#534=DIRECTION('',(2.03116489628226E-011,-0.121869343440069,-0.992546151637034));
#535=DIRECTION('',(-0.121869343440069,-2.03114128311961E-011,-0.992546151637034));
#536=DIRECTION('',(-2.03110979890273E-011,0.121869343440069,-0.992546151637034));
#537=CARTESIAN_POINT('',(0.6000000001,5.5999999999,-2.8));
#538=DIRECTION('',(0.0,0.0,1.0));
#539=DIRECTION('',(-1.6666705053107E-010,1.0,0.0));
#540=SURFACE_STYLE_FILL_AREA(#598);
#541=ORIENTED_EDGE('',*,*,#105,.T.);
#542=ORIENTED_EDGE('',*,*,#121,.F.);
#543=ORIENTED_EDGE('',*,*,#155,.F.);
#544=ORIENTED_EDGE('',*,*,#115,.T.);
#545=CARTESIAN_POINT('',(5.6,6.1999999999,0.0));
#546=DIRECTION('',(0.0,0.99254615164561,-0.121869343370226));
#547=DIRECTION('',(1.0,-0.0,0.0));
#548=DIRECTION('',(0.0,0.121869343405147,-0.992546151641322));
#549=CARTESIAN_POINT('',(5.5999999999,5.5999999999,-2.8));
#550=DIRECTION('',(0.0,-0.0,1.0));
#551=DIRECTION('',(1.0,1.66666680456728E-010,0.0));
#552=DIRECTION('',(0.0,1.0,0.0));
#553=SURFACE_STYLE_FILL_AREA(#599);
#554=ORIENTED_EDGE('',*,*,#111,.T.);
#555=ORIENTED_EDGE('',*,*,#137,.F.);
#556=ORIENTED_EDGE('',*,*,#165,.F.);
#557=ORIENTED_EDGE('',*,*,#117,.T.);
#558=CARTESIAN_POINT('',(0.6000000001,0.6000000001,0.0));
#559=DIRECTION('',(0.0,-0.0,1.0));
#560=DIRECTION('',(-1.0,-1.66666310382387E-010,0.0));
#561=SURFACE_STYLE_FILL_AREA(#600);
#562=ORIENTED_EDGE('',*,*,#119,.T.);
#563=ORIENTED_EDGE('',*,*,#93,.T.);
#564=ORIENTED_EDGE('',*,*,#145,.T.);
#565=ORIENTED_EDGE('',*,*,#99,.T.);
#566=ORIENTED_EDGE('',*,*,#155,.T.);
#567=ORIENTED_EDGE('',*,*,#103,.T.);
#568=ORIENTED_EDGE('',*,*,#171,.T.);
#569=ORIENTED_EDGE('',*,*,#165,.T.);
#570=CARTESIAN_POINT('',(3.1,3.1,0.0));
#571=DIRECTION('',(0.0,0.0,1.0));
#572=DIRECTION('',(1.0,0.0,0.0));
#573=DIRECTION('',(-1.0,0.0,0.0));
#574=CARTESIAN_POINT('',(5.5999999999,0.6000000001,-2.8));
#575=DIRECTION('',(0.0,0.0,1.0));
#576=DIRECTION('',(1.66666680456729E-010,-1.0,0.0));
#577=DIRECTION('',(0.0,-1.0,0.0));
#578=CARTESIAN_POINT('',(0.6000000001,0.6000000001,0.0));
#579=DIRECTION('',(0.0,0.0,1.0));
#580=DIRECTION('',(-1.0,-1.66666310382387E-010,0.0));
#581=SURFACE_STYLE_FILL_AREA(#601);
#582=ORIENTED_EDGE('',*,*,#87,.T.);
#583=ORIENTED_EDGE('',*,*,#123,.F.);
#584=ORIENTED_EDGE('',*,*,#145,.F.);
#585=ORIENTED_EDGE('',*,*,#173,.T.);
#586=CARTESIAN_POINT('',(6.1999999999,0.6,0.0));
#587=DIRECTION('',(0.99254615164561,-0.0,-0.121869343370226));
#588=DIRECTION('',(-0.0,-1.0,0.0));
#589=DIRECTION('',(0.0,-1.0,0.0));
#590=DIRECTION('',(-0.121869343370226,0.0,-0.99254615164561));
#591=FILL_AREA_STYLE('',(#602));
#592=FILL_AREA_STYLE('',(#603));
#593=FILL_AREA_STYLE('',(#604));
#594=FILL_AREA_STYLE('',(#605));
#595=FILL_AREA_STYLE('',(#606));
#596=FILL_AREA_STYLE('',(#607));
#597=FILL_AREA_STYLE('',(#608));
#598=FILL_AREA_STYLE('',(#609));
#599=FILL_AREA_STYLE('',(#610));
#600=FILL_AREA_STYLE('',(#611));
#601=FILL_AREA_STYLE('',(#612));
#602=FILL_AREA_STYLE_COLOUR('',#613);
#603=FILL_AREA_STYLE_COLOUR('',#614);
#604=FILL_AREA_STYLE_COLOUR('',#615);
#605=FILL_AREA_STYLE_COLOUR('',#616);
#606=FILL_AREA_STYLE_COLOUR('',#617);
#607=FILL_AREA_STYLE_COLOUR('',#618);
#608=FILL_AREA_STYLE_COLOUR('',#619);
#609=FILL_AREA_STYLE_COLOUR('',#620);
#610=FILL_AREA_STYLE_COLOUR('',#621);
#611=FILL_AREA_STYLE_COLOUR('',#622);
#612=FILL_AREA_STYLE_COLOUR('',#623);
#613=COLOUR_RGB('',0.800000011920929,0.800000011920929,0.800000011920929);
#614=COLOUR_RGB('',0.800000011920929,0.800000011920929,0.800000011920929);
#615=COLOUR_RGB('',0.800000011920929,0.800000011920929,0.800000011920929);
#616=COLOUR_RGB('',0.800000011920929,0.800000011920929,0.800000011920929);
#617=COLOUR_RGB('',0.800000011920929,0.800000011920929,0.800000011920929);
#618=COLOUR_RGB('',0.800000011920929,0.800000011920929,0.800000011920929);
#619=COLOUR_RGB('',0.800000011920929,0.800000011920929,0.800000011920929);
#620=COLOUR_RGB('',0.800000011920929,0.800000011920929,0.800000011920929);
#621=COLOUR_RGB('',0.800000011920929,0.800000011920929,0.800000011920929);
#622=COLOUR_RGB('',0.800000011920929,0.800000011920929,0.800000011920929);
#623=COLOUR_RGB('',0.800000011920929,0.800000011920929,0.800000011920929);
#624=AXIS2_PLACEMENT_3D('PCS',#625,#626,#627);
#625=CARTESIAN_POINT('',(0.0,0.0,0.0));
#626=DIRECTION('',(0.0,0.0,1.0));
#627=DIRECTION('',(1.0,0.0,0.0));
#628=AXIS2_PLACEMENT_3D('MCS',#629,#630,#631);
#629=CARTESIAN_POINT('',(3.1,3.1,0.0));
#630=DIRECTION('',(0.0,0.0,1.0));
#631=DIRECTION('',(1.0,0.0,0.0));
#632=CONSTRUCTIVE_GEOMETRY_REPRESENTATION_RELATIONSHIP('coordinate systems',$,#65,#633);
#633=CONSTRUCTIVE_GEOMETRY_REPRESENTATION('coordinate systems',(#624,#628),#6);
ENDSEC;
END-ISO-10303-21;
