ISO-10303-21;
HEADER;
FILE_DESCRIPTION(('no description'),'unknown implementation level');
FILE_NAME('solidPnEBCnXqPNDdhIN7UMq_AkeoYeE_1.STP','  ',('CIMSOURCE GmbH'),('CADClick - KiM GmbH - www.kimweb.de'),'unknown preprocess','ACIS','unknown authorization');
FILE_SCHEMA(('automotive_design'));
ENDSEC;
DATA;
#1=MECHANICAL_DESIGN_GEOMETRIC_PRESENTATION_REPRESENTATION(' ',(#10,#11,#12,#13,#14,#15,#16,#17,#18,#19,#20,#21,#22,#23,#24,#25,#26,#27,#28,#29,#30,#31,#32,#33,#34,#35,#36,#37,#38,#39,#40,#41,#42,#43,#44,#45,#46,#47,#48,#49,#50,#51,#52,#53,#54,#55,#56,#57,#58,#59,#60),#6);
#2=PRODUCT_DEFINITION_CONTEXT('',#61,'design');
#3=APPLICATION_PROTOCOL_DEFINITION('INTERNATIONAL STANDARD','automotive_design',1994,#61);
#4=PRODUCT_CATEGORY_RELATIONSHIP('NONE','NONE',#62,#63);
#5=SHAPE_DEFINITION_REPRESENTATION(#64,#65);
#6= (GEOMETRIC_REPRESENTATION_CONTEXT(3)GLOBAL_UNCERTAINTY_ASSIGNED_CONTEXT((#68))GLOBAL_UNIT_ASSIGNED_CONTEXT((#70,#71,#72))REPRESENTATION_CONTEXT('NONE','WORKSPACE'));
#10=STYLED_ITEM('',(#74),#75);
#11=STYLED_ITEM('',(#76),#77);
#12=STYLED_ITEM('',(#78),#79);
#13=STYLED_ITEM('',(#80),#81);
#14=STYLED_ITEM('',(#82),#83);
#15=STYLED_ITEM('',(#84),#85);
#16=STYLED_ITEM('',(#86),#87);
#17=STYLED_ITEM('',(#88),#89);
#18=STYLED_ITEM('',(#90),#91);
#19=STYLED_ITEM('',(#92),#93);
#20=STYLED_ITEM('',(#94),#95);
#21=STYLED_ITEM('',(#96),#97);
#22=STYLED_ITEM('',(#98),#99);
#23=STYLED_ITEM('',(#100),#101);
#24=STYLED_ITEM('',(#102),#103);
#25=STYLED_ITEM('',(#104),#105);
#26=STYLED_ITEM('',(#106),#107);
#27=STYLED_ITEM('',(#108),#109);
#28=STYLED_ITEM('',(#110),#111);
#29=STYLED_ITEM('',(#112),#113);
#30=STYLED_ITEM('',(#114),#115);
#31=STYLED_ITEM('',(#116),#117);
#32=STYLED_ITEM('',(#118),#119);
#33=STYLED_ITEM('',(#120),#121);
#34=STYLED_ITEM('',(#122),#123);
#35=STYLED_ITEM('',(#124),#125);
#36=STYLED_ITEM('',(#126),#127);
#37=STYLED_ITEM('',(#128),#129);
#38=STYLED_ITEM('',(#130),#131);
#39=STYLED_ITEM('',(#132),#133);
#40=STYLED_ITEM('',(#134),#135);
#41=STYLED_ITEM('',(#136),#137);
#42=STYLED_ITEM('',(#138),#139);
#43=STYLED_ITEM('',(#140),#141);
#44=STYLED_ITEM('',(#142),#143);
#45=STYLED_ITEM('',(#144),#145);
#46=STYLED_ITEM('',(#146),#147);
#47=STYLED_ITEM('',(#148),#149);
#48=STYLED_ITEM('',(#150),#151);
#49=STYLED_ITEM('',(#152),#153);
#50=STYLED_ITEM('',(#154),#155);
#51=STYLED_ITEM('',(#156),#157);
#52=STYLED_ITEM('',(#158),#159);
#53=STYLED_ITEM('',(#160),#161);
#54=STYLED_ITEM('',(#162),#163);
#55=STYLED_ITEM('',(#164),#165);
#56=STYLED_ITEM('',(#166),#167);
#57=STYLED_ITEM('',(#168),#169);
#58=STYLED_ITEM('',(#170),#171);
#59=STYLED_ITEM('',(#172),#173);
#60=STYLED_ITEM('',(#174),#175);
#61=APPLICATION_CONTEXT(' ');
#62=PRODUCT_CATEGORY('part','NONE');
#63=PRODUCT_RELATED_PRODUCT_CATEGORY('detail',' ',(#176));
#64=PRODUCT_DEFINITION_SHAPE('NONE','NONE',#177);
#65=ADVANCED_BREP_SHAPE_REPRESENTATION('1',(#153,#178),#6);
#68=UNCERTAINTY_MEASURE_WITH_UNIT(LENGTH_MEASURE(1.0E-006),#70,'','');
#70= (CONVERSION_BASED_UNIT('MILLIMETRE',#181)LENGTH_UNIT()NAMED_UNIT(#184));
#71= (NAMED_UNIT(#186)PLANE_ANGLE_UNIT()SI_UNIT($,.RADIAN.));
#72= (NAMED_UNIT(#186)SOLID_ANGLE_UNIT()SI_UNIT($,.STERADIAN.));
#74=PRESENTATION_STYLE_ASSIGNMENT((#192));
#75=ADVANCED_FACE('',(#193),#194,.T.);
#76=PRESENTATION_STYLE_ASSIGNMENT((#195));
#77=VERTEX_POINT('',#196);
#78=PRESENTATION_STYLE_ASSIGNMENT((#197));
#79=ADVANCED_FACE('',(#198),#199,.T.);
#80=PRESENTATION_STYLE_ASSIGNMENT((#200));
#81=VERTEX_POINT('',#201);
#82=PRESENTATION_STYLE_ASSIGNMENT((#202));
#83=EDGE_CURVE('',#139,#161,#203,.T.);
#84=PRESENTATION_STYLE_ASSIGNMENT((#204));
#85=EDGE_CURVE('',#93,#109,#205,.T.);
#86=PRESENTATION_STYLE_ASSIGNMENT((#206));
#87=VERTEX_POINT('',#207);
#88=PRESENTATION_STYLE_ASSIGNMENT((#208));
#89=VERTEX_POINT('',#209);
#90=PRESENTATION_STYLE_ASSIGNMENT((#210));
#91=EDGE_CURVE('',#119,#143,#211,.T.);
#92=PRESENTATION_STYLE_ASSIGNMENT((#212));
#93=VERTEX_POINT('',#213);
#94=PRESENTATION_STYLE_ASSIGNMENT((#214));
#95=VERTEX_POINT('',#215);
#96=PRESENTATION_STYLE_ASSIGNMENT((#216));
#97=EDGE_CURVE('',#95,#113,#217,.T.);
#98=PRESENTATION_STYLE_ASSIGNMENT((#218));
#99=ADVANCED_FACE('',(#219),#220,.T.);
#100=PRESENTATION_STYLE_ASSIGNMENT((#221));
#101=VERTEX_POINT('',#222);
#102=PRESENTATION_STYLE_ASSIGNMENT((#223));
#103=ADVANCED_FACE('',(#224),#225,.T.);
#104=PRESENTATION_STYLE_ASSIGNMENT((#226));
#105=EDGE_CURVE('',#135,#143,#227,.T.);
#106=PRESENTATION_STYLE_ASSIGNMENT((#228));
#107=EDGE_CURVE('',#139,#113,#229,.T.);
#108=PRESENTATION_STYLE_ASSIGNMENT((#230));
#109=VERTEX_POINT('',#231);
#110=PRESENTATION_STYLE_ASSIGNMENT((#232));
#111=ADVANCED_FACE('',(#233),#234,.T.);
#112=PRESENTATION_STYLE_ASSIGNMENT((#235));
#113=VERTEX_POINT('',#236);
#114=PRESENTATION_STYLE_ASSIGNMENT((#237));
#115=EDGE_CURVE('',#77,#119,#238,.T.);
#116=PRESENTATION_STYLE_ASSIGNMENT((#239));
#117=ADVANCED_FACE('',(#240),#241,.T.);
#118=PRESENTATION_STYLE_ASSIGNMENT((#242));
#119=VERTEX_POINT('',#243);
#120=PRESENTATION_STYLE_ASSIGNMENT((#244));
#121=EDGE_CURVE('',#161,#81,#245,.T.);
#122=PRESENTATION_STYLE_ASSIGNMENT((#246));
#123=EDGE_CURVE('',#77,#135,#247,.T.);
#124=PRESENTATION_STYLE_ASSIGNMENT((#248));
#125=VERTEX_POINT('',#249);
#126=PRESENTATION_STYLE_ASSIGNMENT((#250));
#127=EDGE_CURVE('',#93,#101,#251,.T.);
#128=PRESENTATION_STYLE_ASSIGNMENT((#252));
#129=EDGE_CURVE('',#87,#95,#253,.T.);
#130=PRESENTATION_STYLE_ASSIGNMENT((#254));
#131=ADVANCED_FACE('',(#255),#256,.T.);
#132=PRESENTATION_STYLE_ASSIGNMENT((#257));
#133=ADVANCED_FACE('',(#258),#259,.F.);
#134=PRESENTATION_STYLE_ASSIGNMENT((#260));
#135=VERTEX_POINT('',#261);
#136=PRESENTATION_STYLE_ASSIGNMENT((#262));
#137=ADVANCED_FACE('',(#263),#264,.T.);
#138=PRESENTATION_STYLE_ASSIGNMENT((#265));
#139=VERTEX_POINT('',#266);
#140=PRESENTATION_STYLE_ASSIGNMENT((#267));
#141=EDGE_CURVE('',#109,#125,#268,.T.);
#142=PRESENTATION_STYLE_ASSIGNMENT((#269));
#143=VERTEX_POINT('',#270);
#144=PRESENTATION_STYLE_ASSIGNMENT((#271));
#145=EDGE_CURVE('',#89,#157,#272,.T.);
#146=PRESENTATION_STYLE_ASSIGNMENT((#273));
#147=EDGE_CURVE('',#89,#87,#274,.T.);
#148=PRESENTATION_STYLE_ASSIGNMENT((#275));
#149=EDGE_CURVE('',#87,#139,#276,.T.);
#150=PRESENTATION_STYLE_ASSIGNMENT((#277));
#151=EDGE_CURVE('',#143,#157,#278,.T.);
#152=PRESENTATION_STYLE_ASSIGNMENT((#279));
#153=MANIFOLD_SOLID_BREP('1',#280);
#154=PRESENTATION_STYLE_ASSIGNMENT((#281));
#155=EDGE_CURVE('',#161,#93,#282,.T.);
#156=PRESENTATION_STYLE_ASSIGNMENT((#283));
#157=VERTEX_POINT('',#284);
#158=PRESENTATION_STYLE_ASSIGNMENT((#285));
#159=ADVANCED_FACE('',(#286),#287,.T.);
#160=PRESENTATION_STYLE_ASSIGNMENT((#288));
#161=VERTEX_POINT('',#289);
#162=PRESENTATION_STYLE_ASSIGNMENT((#290));
#163=EDGE_CURVE('',#157,#95,#291,.T.);
#164=PRESENTATION_STYLE_ASSIGNMENT((#292));
#165=EDGE_CURVE('',#119,#89,#293,.T.);
#166=PRESENTATION_STYLE_ASSIGNMENT((#294));
#167=EDGE_CURVE('',#101,#125,#295,.T.);
#168=PRESENTATION_STYLE_ASSIGNMENT((#296));
#169=EDGE_CURVE('',#109,#77,#297,.T.);
#170=PRESENTATION_STYLE_ASSIGNMENT((#298));
#171=EDGE_CURVE('',#81,#101,#299,.T.);
#172=PRESENTATION_STYLE_ASSIGNMENT((#300));
#173=EDGE_CURVE('',#113,#81,#301,.T.);
#174=PRESENTATION_STYLE_ASSIGNMENT((#302));
#175=EDGE_CURVE('',#125,#135,#303,.T.);
#176=PRODUCT('1','1','PART-1-DESC',(#304));
#177=PRODUCT_DEFINITION('NONE','NONE',#305,#2);
#178=AXIS2_PLACEMENT_3D('',#306,#307,#308);
#181=LENGTH_MEASURE_WITH_UNIT(LENGTH_MEASURE(1.0),#309);
#184=DIMENSIONAL_EXPONENTS(1.0,0.0,0.0,0.0,0.0,0.0,0.0);
#186=DIMENSIONAL_EXPONENTS(0.0,0.0,0.0,0.0,0.0,0.0,0.0);
#192=SURFACE_STYLE_USAGE(.BOTH.,#310);
#193=FACE_OUTER_BOUND('',#311,.T.);
#194=PLANE('',#312);
#195=POINT_STYLE(' ',#313,POSITIVE_LENGTH_MEASURE(1.0E-006),#314);
#196=CARTESIAN_POINT('',(0.6,7.2,0.0));
#197=SURFACE_STYLE_USAGE(.BOTH.,#315);
#198=FACE_OUTER_BOUND('',#316,.T.);
#199=PLANE('',#317);
#200=POINT_STYLE(' ',#318,POSITIVE_LENGTH_MEASURE(1.0E-006),#319);
#201=CARTESIAN_POINT('',(6.80708940511071,0.6,-3.2));
#202=CURVE_STYLE('',#320,POSITIVE_LENGTH_MEASURE(1.0E-006),#321);
#203=CIRCLE('',#322,0.6);
#204=CURVE_STYLE('',#323,POSITIVE_LENGTH_MEASURE(1.0E-006),#324);
#205=CIRCLE('',#325,0.600000000000001);
#206=POINT_STYLE(' ',#326,POSITIVE_LENGTH_MEASURE(1.0E-006),#327);
#207=CARTESIAN_POINT('',(0.6,0.0,0.0));
#208=POINT_STYLE(' ',#328,POSITIVE_LENGTH_MEASURE(1.0E-006),#329);
#209=CARTESIAN_POINT('',(0.0,0.600000000000001,0.0));
#210=CURVE_STYLE('',#330,POSITIVE_LENGTH_MEASURE(1.0E-006),#331);
#211=LINE('',#332,#333);
#212=POINT_STYLE(' ',#334,POSITIVE_LENGTH_MEASURE(1.0E-006),#335);
#213=CARTESIAN_POINT('',(7.2,6.6,0.0));
#214=POINT_STYLE(' ',#336,POSITIVE_LENGTH_MEASURE(1.0E-006),#337);
#215=CARTESIAN_POINT('',(0.6,0.392910594889294,-3.2));
#216=CURVE_STYLE('',#338,POSITIVE_LENGTH_MEASURE(1.0E-006),#339);
#217=LINE('',#340,#341);
#218=SURFACE_STYLE_USAGE(.BOTH.,#342);
#219=FACE_OUTER_BOUND('',#343,.T.);
#220=PLANE('',#344);
#221=POINT_STYLE(' ',#345,POSITIVE_LENGTH_MEASURE(1.0E-006),#346);
#222=CARTESIAN_POINT('',(6.80708940501071,6.59999999993451,-3.2));
#223=SURFACE_STYLE_USAGE(.BOTH.,#347);
#224=FACE_OUTER_BOUND('',#348,.T.);
#225=PLANE('',#349);
#226=CURVE_STYLE('',#350,POSITIVE_LENGTH_MEASURE(1.0E-006),#351);
#227=CIRCLE('',#352,0.207089405110706);
#228=CURVE_STYLE('',#353,POSITIVE_LENGTH_MEASURE(1.0E-006),#354);
#229=LINE('',#355,#356);
#230=POINT_STYLE(' ',#357,POSITIVE_LENGTH_MEASURE(1.0E-006),#358);
#231=CARTESIAN_POINT('',(6.6,7.1999999999,0.0));
#232=SURFACE_STYLE_USAGE(.BOTH.,#359);
#233=FACE_OUTER_BOUND('',#360,.T.);
#234=PLANE('',#361);
#235=POINT_STYLE(' ',#362,POSITIVE_LENGTH_MEASURE(1.0E-006),#363);
#236=CARTESIAN_POINT('',(6.59999999993452,0.392910594989294,-3.2));
#237=CURVE_STYLE('',#364,POSITIVE_LENGTH_MEASURE(1.0E-006),#365);
#238=CIRCLE('',#366,0.6);
#239=SURFACE_STYLE_USAGE(.BOTH.,#367);
#240=FACE_OUTER_BOUND('',#368,.T.);
#241=CONICAL_SURFACE('',#369,0.6,0.122173047639603);
#242=POINT_STYLE(' ',#370,POSITIVE_LENGTH_MEASURE(1.0E-006),#371);
#243=CARTESIAN_POINT('',(1.00000452363247E-010,6.6,0.0));
#244=CURVE_STYLE('',#372,POSITIVE_LENGTH_MEASURE(1.0E-006),#373);
#245=LINE('',#374,#375);
#246=CURVE_STYLE('',#376,POSITIVE_LENGTH_MEASURE(1.0E-006),#377);
#247=LINE('',#378,#379);
#248=POINT_STYLE(' ',#380,POSITIVE_LENGTH_MEASURE(1.0E-006),#381);
#249=CARTESIAN_POINT('',(6.6,6.80708940511071,-3.2));
#250=CURVE_STYLE('',#382,POSITIVE_LENGTH_MEASURE(1.0E-006),#383);
#251=LINE('',#384,#385);
#252=CURVE_STYLE('',#386,POSITIVE_LENGTH_MEASURE(1.0E-006),#387);
#253=LINE('',#388,#389);
#254=SURFACE_STYLE_USAGE(.BOTH.,#390);
#255=FACE_OUTER_BOUND('',#391,.T.);
#256=CONICAL_SURFACE('',#392,0.6,0.122173047639603);
#257=SURFACE_STYLE_USAGE(.BOTH.,#393);
#258=FACE_OUTER_BOUND('',#394,.T.);
#259=PLANE('',#395);
#260=POINT_STYLE(' ',#396,POSITIVE_LENGTH_MEASURE(1.0E-006),#397);
#261=CARTESIAN_POINT('',(0.600000000065485,6.80708940501071,-3.2));
#262=SURFACE_STYLE_USAGE(.BOTH.,#398);
#263=FACE_OUTER_BOUND('',#399,.T.);
#264=CONICAL_SURFACE('',#400,0.6,0.122173047639603);
#265=POINT_STYLE(' ',#401,POSITIVE_LENGTH_MEASURE(1.0E-006),#402);
#266=CARTESIAN_POINT('',(6.6,0.0,0.0));
#267=CURVE_STYLE('',#403,POSITIVE_LENGTH_MEASURE(1.0E-006),#404);
#268=LINE('',#405,#406);
#269=POINT_STYLE(' ',#407,POSITIVE_LENGTH_MEASURE(1.0E-006),#408);
#270=CARTESIAN_POINT('',(0.392910594889294,6.6,-3.2));
#271=CURVE_STYLE('',#409,POSITIVE_LENGTH_MEASURE(1.0E-006),#410);
#272=LINE('',#411,#412);
#273=CURVE_STYLE('',#413,POSITIVE_LENGTH_MEASURE(1.0E-006),#414);
#274=CIRCLE('',#415,0.6);
#275=CURVE_STYLE('',#416,POSITIVE_LENGTH_MEASURE(1.0E-006),#417);
#276=LINE('',#418,#419);
#277=CURVE_STYLE('',#420,POSITIVE_LENGTH_MEASURE(1.0E-006),#421);
#278=LINE('',#422,#423);
#279=SURFACE_STYLE_USAGE(.BOTH.,#424);
#280=CLOSED_SHELL('',(#117,#79,#159,#111,#131,#75,#137,#99,#133,#103));
#281=CURVE_STYLE('',#425,POSITIVE_LENGTH_MEASURE(1.0E-006),#426);
#282=LINE('',#427,#428);
#283=POINT_STYLE(' ',#429,POSITIVE_LENGTH_MEASURE(1.0E-006),#430);
#284=CARTESIAN_POINT('',(0.392910594989294,0.600000000065485,-3.2));
#285=SURFACE_STYLE_USAGE(.BOTH.,#431);
#286=FACE_OUTER_BOUND('',#432,.T.);
#287=CONICAL_SURFACE('',#433,0.600000000000001,0.122173047639603);
#288=POINT_STYLE(' ',#434,POSITIVE_LENGTH_MEASURE(1.0E-006),#435);
#289=CARTESIAN_POINT('',(7.1999999999,0.6,0.0));
#290=CURVE_STYLE('',#436,POSITIVE_LENGTH_MEASURE(1.0E-006),#437);
#291=CIRCLE('',#438,0.207089405110706);
#292=CURVE_STYLE('',#439,POSITIVE_LENGTH_MEASURE(1.0E-006),#440);
#293=LINE('',#441,#442);
#294=CURVE_STYLE('',#443,POSITIVE_LENGTH_MEASURE(1.0E-006),#444);
#295=CIRCLE('',#445,0.207089405110707);
#296=CURVE_STYLE('',#446,POSITIVE_LENGTH_MEASURE(1.0E-006),#447);
#297=LINE('',#448,#449);
#298=CURVE_STYLE('',#450,POSITIVE_LENGTH_MEASURE(1.0E-006),#451);
#299=LINE('',#452,#453);
#300=CURVE_STYLE('',#454,POSITIVE_LENGTH_MEASURE(1.0E-006),#455);
#301=CIRCLE('',#456,0.207089405110706);
#302=CURVE_STYLE('',#457,POSITIVE_LENGTH_MEASURE(1.0E-006),#458);
#303=LINE('',#459,#460);
#304=PRODUCT_CONTEXT('',#61,'mechanical');
#305=PRODUCT_DEFINITION_FORMATION_WITH_SPECIFIED_SOURCE(' ','NONE',#176,.NOT_KNOWN.);
#306=CARTESIAN_POINT('',(0.0,0.0,0.0));
#307=DIRECTION('',(0.0,0.0,1.0));
#308=DIRECTION('',(1.0,0.0,0.0));
#309= (NAMED_UNIT(#184)LENGTH_UNIT()SI_UNIT(.MILLI.,.METRE.));
#310=SURFACE_SIDE_STYLE('',(#462));
#311=EDGE_LOOP('',(#463,#464,#465,#466));
#312=AXIS2_PLACEMENT_3D('',#467,#468,#469);
#313=PRE_DEFINED_MARKER('');
#314=COLOUR_RGB('',0.800000011920929,0.800000011920929,0.800000011920929);
#315=SURFACE_SIDE_STYLE('',(#470));
#316=EDGE_LOOP('',(#471,#472,#473,#474));
#317=AXIS2_PLACEMENT_3D('',#475,#476,#477);
#318=PRE_DEFINED_MARKER('');
#319=COLOUR_RGB('',0.800000011920929,0.800000011920929,0.800000011920929);
#320=DRAUGHTING_PRE_DEFINED_CURVE_FONT('continuous');
#321=COLOUR_RGB('',0.800000011920929,0.800000011920929,0.800000011920929);
#322=AXIS2_PLACEMENT_3D('',#478,#479,#480);
#323=DRAUGHTING_PRE_DEFINED_CURVE_FONT('continuous');
#324=COLOUR_RGB('',0.800000011920929,0.800000011920929,0.800000011920929);
#325=AXIS2_PLACEMENT_3D('',#481,#482,#483);
#326=PRE_DEFINED_MARKER('');
#327=COLOUR_RGB('',0.800000011920929,0.800000011920929,0.800000011920929);
#328=PRE_DEFINED_MARKER('');
#329=COLOUR_RGB('',0.800000011920929,0.800000011920929,0.800000011920929);
#330=DRAUGHTING_PRE_DEFINED_CURVE_FONT('continuous');
#331=COLOUR_RGB('',0.800000011920929,0.800000011920929,0.800000011920929);
#332=CARTESIAN_POINT('',(1.00000452363247E-010,6.6,0.0));
#333=VECTOR('',#484,1.0);
#334=PRE_DEFINED_MARKER('');
#335=COLOUR_RGB('',0.800000011920929,0.800000011920929,0.800000011920929);
#336=PRE_DEFINED_MARKER('');
#337=COLOUR_RGB('',0.800000011920929,0.800000011920929,0.800000011920929);
#338=DRAUGHTING_PRE_DEFINED_CURVE_FONT('continuous');
#339=COLOUR_RGB('',0.800000011920929,0.800000011920929,0.800000011920929);
#340=CARTESIAN_POINT('',(0.6,0.392910594889294,-3.2));
#341=VECTOR('',#485,1.0);
#342=SURFACE_SIDE_STYLE('',(#486));
#343=EDGE_LOOP('',(#487,#488,#489,#490));
#344=AXIS2_PLACEMENT_3D('',#491,#492,#493);
#345=PRE_DEFINED_MARKER('');
#346=COLOUR_RGB('',0.800000011920929,0.800000011920929,0.800000011920929);
#347=SURFACE_SIDE_STYLE('',(#494));
#348=EDGE_LOOP('',(#495,#496,#497,#498,#499,#500,#501,#502));
#349=AXIS2_PLACEMENT_3D('',#503,#504,#505);
#350=DRAUGHTING_PRE_DEFINED_CURVE_FONT('continuous');
#351=COLOUR_RGB('',0.800000011920929,0.800000011920929,0.800000011920929);
#352=AXIS2_PLACEMENT_3D('',#506,#507,#508);
#353=DRAUGHTING_PRE_DEFINED_CURVE_FONT('continuous');
#354=COLOUR_RGB('',0.800000011920929,0.800000011920929,0.800000011920929);
#355=CARTESIAN_POINT('',(6.6,0.0,0.0));
#356=VECTOR('',#509,1.0);
#357=PRE_DEFINED_MARKER('');
#358=COLOUR_RGB('',0.800000011920929,0.800000011920929,0.800000011920929);
#359=SURFACE_SIDE_STYLE('',(#510));
#360=EDGE_LOOP('',(#511,#512,#513,#514));
#361=AXIS2_PLACEMENT_3D('',#515,#516,#517);
#362=PRE_DEFINED_MARKER('');
#363=COLOUR_RGB('',0.800000011920929,0.800000011920929,0.800000011920929);
#364=DRAUGHTING_PRE_DEFINED_CURVE_FONT('continuous');
#365=COLOUR_RGB('',0.800000011920929,0.800000011920929,0.800000011920929);
#366=AXIS2_PLACEMENT_3D('',#518,#519,#520);
#367=SURFACE_SIDE_STYLE('',(#521));
#368=EDGE_LOOP('',(#522,#523,#524,#525));
#369=AXIS2_PLACEMENT_3D('',#526,#527,#528);
#370=PRE_DEFINED_MARKER('');
#371=COLOUR_RGB('',0.800000011920929,0.800000011920929,0.800000011920929);
#372=DRAUGHTING_PRE_DEFINED_CURVE_FONT('continuous');
#373=COLOUR_RGB('',0.800000011920929,0.800000011920929,0.800000011920929);
#374=CARTESIAN_POINT('',(7.1999999999,0.6,0.0));
#375=VECTOR('',#529,1.0);
#376=DRAUGHTING_PRE_DEFINED_CURVE_FONT('continuous');
#377=COLOUR_RGB('',0.800000011920929,0.800000011920929,0.800000011920929);
#378=CARTESIAN_POINT('',(0.6,7.2,0.0));
#379=VECTOR('',#530,1.0);
#380=PRE_DEFINED_MARKER('');
#381=COLOUR_RGB('',0.800000011920929,0.800000011920929,0.800000011920929);
#382=DRAUGHTING_PRE_DEFINED_CURVE_FONT('continuous');
#383=COLOUR_RGB('',0.800000011920929,0.800000011920929,0.800000011920929);
#384=CARTESIAN_POINT('',(7.2,6.6,0.0));
#385=VECTOR('',#531,1.0);
#386=DRAUGHTING_PRE_DEFINED_CURVE_FONT('continuous');
#387=COLOUR_RGB('',0.800000011920929,0.800000011920929,0.800000011920929);
#388=CARTESIAN_POINT('',(0.6,0.0,0.0));
#389=VECTOR('',#532,1.0);
#390=SURFACE_SIDE_STYLE('',(#533));
#391=EDGE_LOOP('',(#534,#535,#536,#537));
#392=AXIS2_PLACEMENT_3D('',#538,#539,#540);
#393=SURFACE_SIDE_STYLE('',(#541));
#394=EDGE_LOOP('',(#542,#543,#544,#545,#546,#547,#548,#549));
#395=AXIS2_PLACEMENT_3D('',#550,#551,#552);
#396=PRE_DEFINED_MARKER('');
#397=COLOUR_RGB('',0.800000011920929,0.800000011920929,0.800000011920929);
#398=SURFACE_SIDE_STYLE('',(#553));
#399=EDGE_LOOP('',(#554,#555,#556,#557));
#400=AXIS2_PLACEMENT_3D('',#558,#559,#560);
#401=PRE_DEFINED_MARKER('');
#402=COLOUR_RGB('',0.800000011920929,0.800000011920929,0.800000011920929);
#403=DRAUGHTING_PRE_DEFINED_CURVE_FONT('continuous');
#404=COLOUR_RGB('',0.800000011920929,0.800000011920929,0.800000011920929);
#405=CARTESIAN_POINT('',(6.6,7.1999999999,0.0));
#406=VECTOR('',#561,1.0);
#407=PRE_DEFINED_MARKER('');
#408=COLOUR_RGB('',0.800000011920929,0.800000011920929,0.800000011920929);
#409=DRAUGHTING_PRE_DEFINED_CURVE_FONT('continuous');
#410=COLOUR_RGB('',0.800000011920929,0.800000011920929,0.800000011920929);
#411=CARTESIAN_POINT('',(0.0,0.600000000000001,0.0));
#412=VECTOR('',#562,1.0);
#413=DRAUGHTING_PRE_DEFINED_CURVE_FONT('continuous');
#414=COLOUR_RGB('',0.800000011920929,0.800000011920929,0.800000011920929);
#415=AXIS2_PLACEMENT_3D('',#563,#564,#565);
#416=DRAUGHTING_PRE_DEFINED_CURVE_FONT('continuous');
#417=COLOUR_RGB('',0.800000011920929,0.800000011920929,0.800000011920929);
#418=CARTESIAN_POINT('',(0.6,0.0,0.0));
#419=VECTOR('',#566,1.0);
#420=DRAUGHTING_PRE_DEFINED_CURVE_FONT('continuous');
#421=COLOUR_RGB('',0.800000011920929,0.800000011920929,0.800000011920929);
#422=CARTESIAN_POINT('',(0.392910594889294,6.6,-3.2));
#423=VECTOR('',#567,1.0);
#424=SURFACE_SIDE_STYLE('',(#568));
#425=DRAUGHTING_PRE_DEFINED_CURVE_FONT('continuous');
#426=COLOUR_RGB('',0.800000011920929,0.800000011920929,0.800000011920929);
#427=CARTESIAN_POINT('',(7.2,0.6,0.0));
#428=VECTOR('',#569,1.0);
#429=PRE_DEFINED_MARKER('');
#430=COLOUR_RGB('',0.800000011920929,0.800000011920929,0.800000011920929);
#431=SURFACE_SIDE_STYLE('',(#570));
#432=EDGE_LOOP('',(#571,#572,#573,#574));
#433=AXIS2_PLACEMENT_3D('',#575,#576,#577);
#434=PRE_DEFINED_MARKER('');
#435=COLOUR_RGB('',0.800000011920929,0.800000011920929,0.800000011920929);
#436=DRAUGHTING_PRE_DEFINED_CURVE_FONT('continuous');
#437=COLOUR_RGB('',0.800000011920929,0.800000011920929,0.800000011920929);
#438=AXIS2_PLACEMENT_3D('',#578,#579,#580);
#439=DRAUGHTING_PRE_DEFINED_CURVE_FONT('continuous');
#440=COLOUR_RGB('',0.800000011920929,0.800000011920929,0.800000011920929);
#441=CARTESIAN_POINT('',(0.0,6.6,0.0));
#442=VECTOR('',#581,1.0);
#443=DRAUGHTING_PRE_DEFINED_CURVE_FONT('continuous');
#444=COLOUR_RGB('',0.800000011920929,0.800000011920929,0.800000011920929);
#445=AXIS2_PLACEMENT_3D('',#582,#583,#584);
#446=DRAUGHTING_PRE_DEFINED_CURVE_FONT('continuous');
#447=COLOUR_RGB('',0.800000011920929,0.800000011920929,0.800000011920929);
#448=CARTESIAN_POINT('',(6.6,7.2,0.0));
#449=VECTOR('',#585,1.0);
#450=DRAUGHTING_PRE_DEFINED_CURVE_FONT('continuous');
#451=COLOUR_RGB('',0.800000011920929,0.800000011920929,0.800000011920929);
#452=CARTESIAN_POINT('',(6.80708940511071,0.6,-3.2));
#453=VECTOR('',#586,1.0);
#454=DRAUGHTING_PRE_DEFINED_CURVE_FONT('continuous');
#455=COLOUR_RGB('',0.800000011920929,0.800000011920929,0.800000011920929);
#456=AXIS2_PLACEMENT_3D('',#587,#588,#589);
#457=DRAUGHTING_PRE_DEFINED_CURVE_FONT('continuous');
#458=COLOUR_RGB('',0.800000011920929,0.800000011920929,0.800000011920929);
#459=CARTESIAN_POINT('',(6.6,6.80708940511071,-3.2));
#460=VECTOR('',#590,1.0);
#462=SURFACE_STYLE_FILL_AREA(#591);
#463=ORIENTED_EDGE('',*,*,#151,.T.);
#464=ORIENTED_EDGE('',*,*,#145,.F.);
#465=ORIENTED_EDGE('',*,*,#165,.F.);
#466=ORIENTED_EDGE('',*,*,#91,.T.);
#467=CARTESIAN_POINT('',(1.00000452363247E-010,6.6,0.0));
#468=DIRECTION('',(-0.992546151645074,0.0,-0.121869343374591));
#469=DIRECTION('',(0.0,1.0,0.0));
#470=SURFACE_STYLE_FILL_AREA(#592);
#471=ORIENTED_EDGE('',*,*,#171,.T.);
#472=ORIENTED_EDGE('',*,*,#127,.F.);
#473=ORIENTED_EDGE('',*,*,#155,.F.);
#474=ORIENTED_EDGE('',*,*,#121,.T.);
#475=CARTESIAN_POINT('',(7.1999999999,0.6,0.0));
#476=DIRECTION('',(0.992546151645074,-0.0,-0.121869343374591));
#477=DIRECTION('',(-0.0,-1.0,0.0));
#478=CARTESIAN_POINT('',(6.5999999999,0.6000000001,0.0));
#479=DIRECTION('',(0.0,0.0,1.0));
#480=DIRECTION('',(1.66666680456729E-010,-1.0,0.0));
#481=CARTESIAN_POINT('',(6.5999999999,6.5999999999,0.0));
#482=DIRECTION('',(0.0,-0.0,1.0));
#483=DIRECTION('',(1.0,1.66666680456728E-010,0.0));
#484=DIRECTION('',(0.121869343374591,0.0,-0.992546151645074));
#485=DIRECTION('',(1.0,0.0,0.0));
#486=SURFACE_STYLE_FILL_AREA(#593);
#487=ORIENTED_EDGE('',*,*,#97,.T.);
#488=ORIENTED_EDGE('',*,*,#107,.F.);
#489=ORIENTED_EDGE('',*,*,#149,.F.);
#490=ORIENTED_EDGE('',*,*,#129,.T.);
#491=CARTESIAN_POINT('',(0.6,0.0,0.0));
#492=DIRECTION('',(-0.0,-0.992546151641322,-0.121869343405147));
#493=DIRECTION('',(-1.0,0.0,0.0));
#494=SURFACE_STYLE_FILL_AREA(#594);
#495=ORIENTED_EDGE('',*,*,#149,.T.);
#496=ORIENTED_EDGE('',*,*,#83,.T.);
#497=ORIENTED_EDGE('',*,*,#155,.T.);
#498=ORIENTED_EDGE('',*,*,#85,.T.);
#499=ORIENTED_EDGE('',*,*,#169,.T.);
#500=ORIENTED_EDGE('',*,*,#115,.T.);
#501=ORIENTED_EDGE('',*,*,#165,.T.);
#502=ORIENTED_EDGE('',*,*,#147,.T.);
#503=CARTESIAN_POINT('',(3.6,3.6,0.0));
#504=DIRECTION('',(0.0,0.0,1.0));
#505=DIRECTION('',(1.0,0.0,0.0));
#506=CARTESIAN_POINT('',(0.6000000001,6.5999999999,-3.2));
#507=DIRECTION('',(0.0,0.0,1.0));
#508=DIRECTION('',(-1.6666705053107E-010,1.0,0.0));
#509=DIRECTION('',(-2.03113734759359E-011,0.121869343435704,-0.99254615163757));
#510=SURFACE_STYLE_FILL_AREA(#595);
#511=ORIENTED_EDGE('',*,*,#175,.T.);
#512=ORIENTED_EDGE('',*,*,#123,.F.);
#513=ORIENTED_EDGE('',*,*,#169,.F.);
#514=ORIENTED_EDGE('',*,*,#141,.T.);
#515=CARTESIAN_POINT('',(6.6,7.1999999999,0.0));
#516=DIRECTION('',(0.0,0.992546151645074,-0.121869343374591));
#517=DIRECTION('',(1.0,-0.0,0.0));
#518=CARTESIAN_POINT('',(0.6000000001,6.5999999999,0.0));
#519=DIRECTION('',(0.0,0.0,1.0));
#520=DIRECTION('',(-1.6666705053107E-010,1.0,0.0));
#521=SURFACE_STYLE_FILL_AREA(#596);
#522=ORIENTED_EDGE('',*,*,#173,.T.);
#523=ORIENTED_EDGE('',*,*,#121,.F.);
#524=ORIENTED_EDGE('',*,*,#83,.F.);
#525=ORIENTED_EDGE('',*,*,#107,.T.);
#526=CARTESIAN_POINT('',(6.5999999999,0.6000000001,0.0));
#527=DIRECTION('',(-0.0,-0.0,1.0));
#528=DIRECTION('',(1.66666680456729E-010,-1.0,0.0));
#529=DIRECTION('',(-0.121869343374591,0.0,-0.992546151645074));
#530=DIRECTION('',(2.03116489628336E-011,-0.121869343435704,-0.99254615163757));
#531=DIRECTION('',(-0.121869343435704,-2.03116489628336E-011,-0.99254615163757));
#532=DIRECTION('',(0.0,0.121869343405147,-0.992546151641322));
#533=SURFACE_STYLE_FILL_AREA(#597);
#534=ORIENTED_EDGE('',*,*,#105,.T.);
#535=ORIENTED_EDGE('',*,*,#91,.F.);
#536=ORIENTED_EDGE('',*,*,#115,.F.);
#537=ORIENTED_EDGE('',*,*,#123,.T.);
#538=CARTESIAN_POINT('',(0.6000000001,6.5999999999,0.0));
#539=DIRECTION('',(-0.0,-0.0,1.0));
#540=DIRECTION('',(-1.6666705053107E-010,1.0,0.0));
#541=SURFACE_STYLE_FILL_AREA(#598);
#542=ORIENTED_EDGE('',*,*,#173,.F.);
#543=ORIENTED_EDGE('',*,*,#97,.F.);
#544=ORIENTED_EDGE('',*,*,#163,.F.);
#545=ORIENTED_EDGE('',*,*,#151,.F.);
#546=ORIENTED_EDGE('',*,*,#105,.F.);
#547=ORIENTED_EDGE('',*,*,#175,.F.);
#548=ORIENTED_EDGE('',*,*,#167,.F.);
#549=ORIENTED_EDGE('',*,*,#171,.F.);
#550=CARTESIAN_POINT('',(3.6,3.6,-3.2));
#551=DIRECTION('',(0.0,0.0,1.0));
#552=DIRECTION('',(1.0,0.0,0.0));
#553=SURFACE_STYLE_FILL_AREA(#599);
#554=ORIENTED_EDGE('',*,*,#163,.T.);
#555=ORIENTED_EDGE('',*,*,#129,.F.);
#556=ORIENTED_EDGE('',*,*,#147,.F.);
#557=ORIENTED_EDGE('',*,*,#145,.T.);
#558=CARTESIAN_POINT('',(0.6000000001,0.6000000001,0.0));
#559=DIRECTION('',(0.0,-0.0,1.0));
#560=DIRECTION('',(-1.0,-1.66666310382387E-010,0.0));
#561=DIRECTION('',(0.0,-0.121869343374591,-0.992546151645074));
#562=DIRECTION('',(0.121869343435704,2.03114767835225E-011,-0.99254615163757));
#563=CARTESIAN_POINT('',(0.6000000001,0.6000000001,0.0));
#564=DIRECTION('',(0.0,0.0,1.0));
#565=DIRECTION('',(-1.0,-1.66666310382387E-010,0.0));
#566=DIRECTION('',(1.0,0.0,0.0));
#567=DIRECTION('',(0.0,-1.0,0.0));
#568=SURFACE_STYLE_FILL_AREA(#600);
#569=DIRECTION('',(0.0,1.0,0.0));
#570=SURFACE_STYLE_FILL_AREA(#601);
#571=ORIENTED_EDGE('',*,*,#167,.T.);
#572=ORIENTED_EDGE('',*,*,#141,.F.);
#573=ORIENTED_EDGE('',*,*,#85,.F.);
#574=ORIENTED_EDGE('',*,*,#127,.T.);
#575=CARTESIAN_POINT('',(6.5999999999,6.5999999999,0.0));
#576=DIRECTION('',(-0.0,-0.0,1.0));
#577=DIRECTION('',(1.0,1.66666680456728E-010,0.0));
#578=CARTESIAN_POINT('',(0.6000000001,0.6000000001,-3.2));
#579=DIRECTION('',(0.0,0.0,1.0));
#580=DIRECTION('',(-1.0,-1.66666310382387E-010,0.0));
#581=DIRECTION('',(0.0,-1.0,0.0));
#582=CARTESIAN_POINT('',(6.5999999999,6.5999999999,-3.2));
#583=DIRECTION('',(0.0,-0.0,1.0));
#584=DIRECTION('',(1.0,1.66666680456728E-010,0.0));
#585=DIRECTION('',(-1.0,0.0,0.0));
#586=DIRECTION('',(0.0,1.0,0.0));
#587=CARTESIAN_POINT('',(6.5999999999,0.6000000001,-3.2));
#588=DIRECTION('',(0.0,0.0,1.0));
#589=DIRECTION('',(1.66666680456729E-010,-1.0,0.0));
#590=DIRECTION('',(-1.0,0.0,0.0));
#591=FILL_AREA_STYLE('',(#602));
#592=FILL_AREA_STYLE('',(#603));
#593=FILL_AREA_STYLE('',(#604));
#594=FILL_AREA_STYLE('',(#605));
#595=FILL_AREA_STYLE('',(#606));
#596=FILL_AREA_STYLE('',(#607));
#597=FILL_AREA_STYLE('',(#608));
#598=FILL_AREA_STYLE('',(#609));
#599=FILL_AREA_STYLE('',(#610));
#600=FILL_AREA_STYLE('',(#611));
#601=FILL_AREA_STYLE('',(#612));
#602=FILL_AREA_STYLE_COLOUR('',#613);
#603=FILL_AREA_STYLE_COLOUR('',#614);
#604=FILL_AREA_STYLE_COLOUR('',#615);
#605=FILL_AREA_STYLE_COLOUR('',#616);
#606=FILL_AREA_STYLE_COLOUR('',#617);
#607=FILL_AREA_STYLE_COLOUR('',#618);
#608=FILL_AREA_STYLE_COLOUR('',#619);
#609=FILL_AREA_STYLE_COLOUR('',#620);
#610=FILL_AREA_STYLE_COLOUR('',#621);
#611=FILL_AREA_STYLE_COLOUR('',#622);
#612=FILL_AREA_STYLE_COLOUR('',#623);
#613=COLOUR_RGB('',0.800000011920929,0.800000011920929,0.800000011920929);
#614=COLOUR_RGB('',0.800000011920929,0.800000011920929,0.800000011920929);
#615=COLOUR_RGB('',0.800000011920929,0.800000011920929,0.800000011920929);
#616=COLOUR_RGB('',0.800000011920929,0.800000011920929,0.800000011920929);
#617=COLOUR_RGB('',0.800000011920929,0.800000011920929,0.800000011920929);
#618=COLOUR_RGB('',0.800000011920929,0.800000011920929,0.800000011920929);
#619=COLOUR_RGB('',0.800000011920929,0.800000011920929,0.800000011920929);
#620=COLOUR_RGB('',0.800000011920929,0.800000011920929,0.800000011920929);
#621=COLOUR_RGB('',0.800000011920929,0.800000011920929,0.800000011920929);
#622=COLOUR_RGB('',0.800000011920929,0.800000011920929,0.800000011920929);
#623=COLOUR_RGB('',0.800000011920929,0.800000011920929,0.800000011920929);
#624=AXIS2_PLACEMENT_3D('PCS',#625,#626,#627);
#625=CARTESIAN_POINT('',(0.0,0.0,0.0));
#626=DIRECTION('',(0.0,0.0,1.0));
#627=DIRECTION('',(1.0,0.0,0.0));
#628=AXIS2_PLACEMENT_3D('MCS',#629,#630,#631);
#629=CARTESIAN_POINT('',(3.6,3.6,0.0));
#630=DIRECTION('',(0.0,0.0,1.0));
#631=DIRECTION('',(1.0,0.0,0.0));
#632=CONSTRUCTIVE_GEOMETRY_REPRESENTATION_RELATIONSHIP('coordinate systems',$,#65,#633);
#633=CONSTRUCTIVE_GEOMETRY_REPRESENTATION('coordinate systems',(#624,#628),#6);
ENDSEC;
END-ISO-10303-21;
