ISO-10303-21;
HEADER;
FILE_DESCRIPTION(('no description'),'unknown implementation level');
FILE_NAME('solidgNCrmGSEL1wUjxbLgvPH4c_H_Yg_1.STP','  ',('CIMSOURCE GmbH'),('CADClick - KiM GmbH - www.kimweb.de'),'unknown preprocess','ACIS','unknown authorization');
FILE_SCHEMA(('automotive_design'));
ENDSEC;
DATA;
#1=MECHANICAL_DESIGN_GEOMETRIC_PRESENTATION_REPRESENTATION(' ',(#10,#11,#12,#13,#14,#15,#16,#17,#18,#19,#20,#21,#22,#23,#24,#25,#26,#27,#28,#29,#30,#31,#32,#33,#34,#35,#36,#37,#38,#39,#40,#41,#42,#43,#44,#45,#46,#47,#48,#49,#50,#51,#52,#53,#54,#55,#56,#57,#58,#59,#60),#6);
#2=PRODUCT_DEFINITION_CONTEXT('',#61,'design');
#3=APPLICATION_PROTOCOL_DEFINITION('INTERNATIONAL STANDARD','automotive_design',1994,#61);
#4=PRODUCT_CATEGORY_RELATIONSHIP('NONE','NONE',#62,#63);
#5=SHAPE_DEFINITION_REPRESENTATION(#64,#65);
#6= (GEOMETRIC_REPRESENTATION_CONTEXT(3)GLOBAL_UNCERTAINTY_ASSIGNED_CONTEXT((#68))GLOBAL_UNIT_ASSIGNED_CONTEXT((#70,#71,#72))REPRESENTATION_CONTEXT('NONE','WORKSPACE'));
#10=STYLED_ITEM('',(#74),#75);
#11=STYLED_ITEM('',(#76),#77);
#12=STYLED_ITEM('',(#78),#79);
#13=STYLED_ITEM('',(#80),#81);
#14=STYLED_ITEM('',(#82),#83);
#15=STYLED_ITEM('',(#84),#85);
#16=STYLED_ITEM('',(#86),#87);
#17=STYLED_ITEM('',(#88),#89);
#18=STYLED_ITEM('',(#90),#91);
#19=STYLED_ITEM('',(#92),#93);
#20=STYLED_ITEM('',(#94),#95);
#21=STYLED_ITEM('',(#96),#97);
#22=STYLED_ITEM('',(#98),#99);
#23=STYLED_ITEM('',(#100),#101);
#24=STYLED_ITEM('',(#102),#103);
#25=STYLED_ITEM('',(#104),#105);
#26=STYLED_ITEM('',(#106),#107);
#27=STYLED_ITEM('',(#108),#109);
#28=STYLED_ITEM('',(#110),#111);
#29=STYLED_ITEM('',(#112),#113);
#30=STYLED_ITEM('',(#114),#115);
#31=STYLED_ITEM('',(#116),#117);
#32=STYLED_ITEM('',(#118),#119);
#33=STYLED_ITEM('',(#120),#121);
#34=STYLED_ITEM('',(#122),#123);
#35=STYLED_ITEM('',(#124),#125);
#36=STYLED_ITEM('',(#126),#127);
#37=STYLED_ITEM('',(#128),#129);
#38=STYLED_ITEM('',(#130),#131);
#39=STYLED_ITEM('',(#132),#133);
#40=STYLED_ITEM('',(#134),#135);
#41=STYLED_ITEM('',(#136),#137);
#42=STYLED_ITEM('',(#138),#139);
#43=STYLED_ITEM('',(#140),#141);
#44=STYLED_ITEM('',(#142),#143);
#45=STYLED_ITEM('',(#144),#145);
#46=STYLED_ITEM('',(#146),#147);
#47=STYLED_ITEM('',(#148),#149);
#48=STYLED_ITEM('',(#150),#151);
#49=STYLED_ITEM('',(#152),#153);
#50=STYLED_ITEM('',(#154),#155);
#51=STYLED_ITEM('',(#156),#157);
#52=STYLED_ITEM('',(#158),#159);
#53=STYLED_ITEM('',(#160),#161);
#54=STYLED_ITEM('',(#162),#163);
#55=STYLED_ITEM('',(#164),#165);
#56=STYLED_ITEM('',(#166),#167);
#57=STYLED_ITEM('',(#168),#169);
#58=STYLED_ITEM('',(#170),#171);
#59=STYLED_ITEM('',(#172),#173);
#60=STYLED_ITEM('',(#174),#175);
#61=APPLICATION_CONTEXT(' ');
#62=PRODUCT_CATEGORY('part','NONE');
#63=PRODUCT_RELATED_PRODUCT_CATEGORY('detail',' ',(#176));
#64=PRODUCT_DEFINITION_SHAPE('NONE','NONE',#177);
#65=ADVANCED_BREP_SHAPE_REPRESENTATION('1',(#75,#178),#6);
#68=UNCERTAINTY_MEASURE_WITH_UNIT(LENGTH_MEASURE(1.0E-006),#70,'','');
#70= (CONVERSION_BASED_UNIT('MILLIMETRE',#181)LENGTH_UNIT()NAMED_UNIT(#184));
#71= (NAMED_UNIT(#186)PLANE_ANGLE_UNIT()SI_UNIT($,.RADIAN.));
#72= (NAMED_UNIT(#186)SOLID_ANGLE_UNIT()SI_UNIT($,.STERADIAN.));
#74=PRESENTATION_STYLE_ASSIGNMENT((#192));
#75=MANIFOLD_SOLID_BREP('1',#193);
#76=PRESENTATION_STYLE_ASSIGNMENT((#194));
#77=VERTEX_POINT('',#195);
#78=PRESENTATION_STYLE_ASSIGNMENT((#196));
#79=EDGE_CURVE('',#165,#155,#197,.T.);
#80=PRESENTATION_STYLE_ASSIGNMENT((#198));
#81=ADVANCED_FACE('',(#199),#200,.T.);
#82=PRESENTATION_STYLE_ASSIGNMENT((#201));
#83=ADVANCED_FACE('',(#202),#203,.F.);
#84=PRESENTATION_STYLE_ASSIGNMENT((#204));
#85=ADVANCED_FACE('',(#205),#206,.T.);
#86=PRESENTATION_STYLE_ASSIGNMENT((#207));
#87=ADVANCED_FACE('',(#208),#209,.T.);
#88=PRESENTATION_STYLE_ASSIGNMENT((#210));
#89=EDGE_CURVE('',#159,#151,#211,.T.);
#90=PRESENTATION_STYLE_ASSIGNMENT((#212));
#91=VERTEX_POINT('',#213);
#92=PRESENTATION_STYLE_ASSIGNMENT((#214));
#93=EDGE_CURVE('',#121,#91,#215,.T.);
#94=PRESENTATION_STYLE_ASSIGNMENT((#216));
#95=EDGE_CURVE('',#129,#119,#217,.T.);
#96=PRESENTATION_STYLE_ASSIGNMENT((#218));
#97=VERTEX_POINT('',#219);
#98=PRESENTATION_STYLE_ASSIGNMENT((#220));
#99=VERTEX_POINT('',#221);
#100=PRESENTATION_STYLE_ASSIGNMENT((#222));
#101=EDGE_CURVE('',#155,#123,#223,.T.);
#102=PRESENTATION_STYLE_ASSIGNMENT((#224));
#103=VERTEX_POINT('',#225);
#104=PRESENTATION_STYLE_ASSIGNMENT((#226));
#105=ADVANCED_FACE('',(#227),#228,.T.);
#106=PRESENTATION_STYLE_ASSIGNMENT((#229));
#107=VERTEX_POINT('',#230);
#108=PRESENTATION_STYLE_ASSIGNMENT((#231));
#109=VERTEX_POINT('',#232);
#110=PRESENTATION_STYLE_ASSIGNMENT((#233));
#111=EDGE_CURVE('',#129,#77,#234,.T.);
#112=PRESENTATION_STYLE_ASSIGNMENT((#235));
#113=EDGE_CURVE('',#99,#165,#236,.T.);
#114=PRESENTATION_STYLE_ASSIGNMENT((#237));
#115=EDGE_CURVE('',#109,#97,#238,.T.);
#116=PRESENTATION_STYLE_ASSIGNMENT((#239));
#117=ADVANCED_FACE('',(#240),#241,.T.);
#118=PRESENTATION_STYLE_ASSIGNMENT((#242));
#119=VERTEX_POINT('',#243);
#120=PRESENTATION_STYLE_ASSIGNMENT((#244));
#121=VERTEX_POINT('',#245);
#122=PRESENTATION_STYLE_ASSIGNMENT((#246));
#123=VERTEX_POINT('',#247);
#124=PRESENTATION_STYLE_ASSIGNMENT((#248));
#125=EDGE_CURVE('',#123,#167,#249,.T.);
#126=PRESENTATION_STYLE_ASSIGNMENT((#250));
#127=EDGE_CURVE('',#99,#97,#251,.T.);
#128=PRESENTATION_STYLE_ASSIGNMENT((#252));
#129=VERTEX_POINT('',#253);
#130=PRESENTATION_STYLE_ASSIGNMENT((#254));
#131=EDGE_CURVE('',#77,#109,#255,.T.);
#132=PRESENTATION_STYLE_ASSIGNMENT((#256));
#133=EDGE_CURVE('',#107,#91,#257,.T.);
#134=PRESENTATION_STYLE_ASSIGNMENT((#258));
#135=EDGE_CURVE('',#165,#103,#259,.T.);
#136=PRESENTATION_STYLE_ASSIGNMENT((#260));
#137=ADVANCED_FACE('',(#261),#262,.T.);
#138=PRESENTATION_STYLE_ASSIGNMENT((#263));
#139=EDGE_CURVE('',#91,#119,#264,.T.);
#140=PRESENTATION_STYLE_ASSIGNMENT((#265));
#141=ADVANCED_FACE('',(#266),#267,.T.);
#142=PRESENTATION_STYLE_ASSIGNMENT((#268));
#143=EDGE_CURVE('',#97,#155,#269,.T.);
#144=PRESENTATION_STYLE_ASSIGNMENT((#270));
#145=EDGE_CURVE('',#119,#109,#271,.T.);
#146=PRESENTATION_STYLE_ASSIGNMENT((#272));
#147=EDGE_CURVE('',#121,#129,#273,.T.);
#148=PRESENTATION_STYLE_ASSIGNMENT((#274));
#149=EDGE_CURVE('',#159,#167,#275,.T.);
#150=PRESENTATION_STYLE_ASSIGNMENT((#276));
#151=VERTEX_POINT('',#277);
#152=PRESENTATION_STYLE_ASSIGNMENT((#278));
#153=ADVANCED_FACE('',(#279),#280,.T.);
#154=PRESENTATION_STYLE_ASSIGNMENT((#281));
#155=VERTEX_POINT('',#282);
#156=PRESENTATION_STYLE_ASSIGNMENT((#283));
#157=ADVANCED_FACE('',(#284),#285,.T.);
#158=PRESENTATION_STYLE_ASSIGNMENT((#286));
#159=VERTEX_POINT('',#287);
#160=PRESENTATION_STYLE_ASSIGNMENT((#288));
#161=EDGE_CURVE('',#151,#121,#289,.T.);
#162=PRESENTATION_STYLE_ASSIGNMENT((#290));
#163=EDGE_CURVE('',#103,#123,#291,.T.);
#164=PRESENTATION_STYLE_ASSIGNMENT((#292));
#165=VERTEX_POINT('',#293);
#166=PRESENTATION_STYLE_ASSIGNMENT((#294));
#167=VERTEX_POINT('',#295);
#168=PRESENTATION_STYLE_ASSIGNMENT((#296));
#169=EDGE_CURVE('',#103,#159,#297,.T.);
#170=PRESENTATION_STYLE_ASSIGNMENT((#298));
#171=EDGE_CURVE('',#167,#107,#299,.T.);
#172=PRESENTATION_STYLE_ASSIGNMENT((#300));
#173=EDGE_CURVE('',#151,#107,#301,.T.);
#174=PRESENTATION_STYLE_ASSIGNMENT((#302));
#175=EDGE_CURVE('',#77,#99,#303,.T.);
#176=PRODUCT('1','1','PART-1-DESC',(#304));
#177=PRODUCT_DEFINITION('NONE','NONE',#305,#2);
#178=AXIS2_PLACEMENT_3D('',#306,#307,#308);
#181=LENGTH_MEASURE_WITH_UNIT(LENGTH_MEASURE(1.0),#309);
#184=DIMENSIONAL_EXPONENTS(1.0,0.0,0.0,0.0,0.0,0.0,0.0);
#186=DIMENSIONAL_EXPONENTS(0.0,0.0,0.0,0.0,0.0,0.0,0.0);
#192=SURFACE_STYLE_USAGE(.BOTH.,#310);
#193=CLOSED_SHELL('',(#137,#85,#105,#141,#117,#157,#87,#153,#83,#81));
#194=POINT_STYLE(' ',#311,POSITIVE_LENGTH_MEASURE(1.0E-006),#312);
#195=CARTESIAN_POINT('',(1.00000341340944E-010,9.2,0.0));
#196=CURVE_STYLE('',#313,POSITIVE_LENGTH_MEASURE(1.0E-006),#314);
#197=LINE('',#315,#316);
#198=SURFACE_STYLE_USAGE(.BOTH.,#317);
#199=FACE_OUTER_BOUND('',#318,.T.);
#200=PLANE('',#319);
#201=SURFACE_STYLE_USAGE(.BOTH.,#320);
#202=FACE_OUTER_BOUND('',#321,.T.);
#203=PLANE('',#322);
#204=SURFACE_STYLE_USAGE(.BOTH.,#323);
#205=FACE_OUTER_BOUND('',#324,.T.);
#206=PLANE('',#325);
#207=SURFACE_STYLE_USAGE(.BOTH.,#326);
#208=FACE_OUTER_BOUND('',#327,.T.);
#209=CONICAL_SURFACE('',#328,0.8,0.122173047639603);
#210=CURVE_STYLE('',#329,POSITIVE_LENGTH_MEASURE(1.0E-006),#330);
#211=LINE('',#331,#332);
#212=POINT_STYLE(' ',#333,POSITIVE_LENGTH_MEASURE(1.0E-006),#334);
#213=CARTESIAN_POINT('',(9.2,9.4843048442078,-4.2));
#214=CURVE_STYLE('',#335,POSITIVE_LENGTH_MEASURE(1.0E-006),#336);
#215=LINE('',#337,#338);
#216=CURVE_STYLE('',#339,POSITIVE_LENGTH_MEASURE(1.0E-006),#340);
#217=LINE('',#341,#342);
#218=POINT_STYLE(' ',#343,POSITIVE_LENGTH_MEASURE(1.0E-006),#344);
#219=CARTESIAN_POINT('',(0.515695155892198,0.800000000064462,-4.2));
#220=POINT_STYLE(' ',#345,POSITIVE_LENGTH_MEASURE(1.0E-006),#346);
#221=CARTESIAN_POINT('',(0.0,0.800000000000001,0.0));
#222=CURVE_STYLE('',#347,POSITIVE_LENGTH_MEASURE(1.0E-006),#348);
#223=LINE('',#349,#350);
#224=POINT_STYLE(' ',#351,POSITIVE_LENGTH_MEASURE(1.0E-006),#352);
#225=CARTESIAN_POINT('',(9.2,0.0,0.0));
#226=SURFACE_STYLE_USAGE(.BOTH.,#353);
#227=FACE_OUTER_BOUND('',#354,.T.);
#228=CONICAL_SURFACE('',#355,0.800000000000006,0.122173047639603);
#229=POINT_STYLE(' ',#356,POSITIVE_LENGTH_MEASURE(1.0E-006),#357);
#230=CARTESIAN_POINT('',(9.4843048441078,9.19999999993554,-4.2));
#231=POINT_STYLE(' ',#358,POSITIVE_LENGTH_MEASURE(1.0E-006),#359);
#232=CARTESIAN_POINT('',(0.515695155792198,9.2,-4.2));
#233=CURVE_STYLE('',#360,POSITIVE_LENGTH_MEASURE(1.0E-006),#361);
#234=CIRCLE('',#362,0.800000000000004);
#235=CURVE_STYLE('',#363,POSITIVE_LENGTH_MEASURE(1.0E-006),#364);
#236=CIRCLE('',#365,0.8);
#237=CURVE_STYLE('',#366,POSITIVE_LENGTH_MEASURE(1.0E-006),#367);
#238=LINE('',#368,#369);
#239=SURFACE_STYLE_USAGE(.BOTH.,#370);
#240=FACE_OUTER_BOUND('',#371,.T.);
#241=CONICAL_SURFACE('',#372,0.800000000000004,0.122173047639603);
#242=POINT_STYLE(' ',#373,POSITIVE_LENGTH_MEASURE(1.0E-006),#374);
#243=CARTESIAN_POINT('',(0.800000000064465,9.4843048441078,-4.2));
#244=POINT_STYLE(' ',#375,POSITIVE_LENGTH_MEASURE(1.0E-006),#376);
#245=CARTESIAN_POINT('',(9.2,9.9999999999,0.0));
#246=POINT_STYLE(' ',#377,POSITIVE_LENGTH_MEASURE(1.0E-006),#378);
#247=CARTESIAN_POINT('',(9.19999999993554,0.515695155892198,-4.2));
#248=CURVE_STYLE('',#379,POSITIVE_LENGTH_MEASURE(1.0E-006),#380);
#249=CIRCLE('',#381,0.284304844207802);
#250=CURVE_STYLE('',#382,POSITIVE_LENGTH_MEASURE(1.0E-006),#383);
#251=LINE('',#384,#385);
#252=POINT_STYLE(' ',#386,POSITIVE_LENGTH_MEASURE(1.0E-006),#387);
#253=CARTESIAN_POINT('',(0.800000000000001,10.0,0.0));
#254=CURVE_STYLE('',#388,POSITIVE_LENGTH_MEASURE(1.0E-006),#389);
#255=LINE('',#390,#391);
#256=CURVE_STYLE('',#392,POSITIVE_LENGTH_MEASURE(1.0E-006),#393);
#257=CIRCLE('',#394,0.284304844207808);
#258=CURVE_STYLE('',#395,POSITIVE_LENGTH_MEASURE(1.0E-006),#396);
#259=LINE('',#397,#398);
#260=SURFACE_STYLE_USAGE(.BOTH.,#399);
#261=FACE_OUTER_BOUND('',#400,.T.);
#262=CONICAL_SURFACE('',#401,0.8,0.122173047639603);
#263=CURVE_STYLE('',#402,POSITIVE_LENGTH_MEASURE(1.0E-006),#403);
#264=LINE('',#404,#405);
#265=SURFACE_STYLE_USAGE(.BOTH.,#406);
#266=FACE_OUTER_BOUND('',#407,.T.);
#267=PLANE('',#408);
#268=CURVE_STYLE('',#409,POSITIVE_LENGTH_MEASURE(1.0E-006),#410);
#269=CIRCLE('',#411,0.284304844207802);
#270=CURVE_STYLE('',#412,POSITIVE_LENGTH_MEASURE(1.0E-006),#413);
#271=CIRCLE('',#414,0.284304844207806);
#272=CURVE_STYLE('',#415,POSITIVE_LENGTH_MEASURE(1.0E-006),#416);
#273=LINE('',#417,#418);
#274=CURVE_STYLE('',#419,POSITIVE_LENGTH_MEASURE(1.0E-006),#420);
#275=LINE('',#421,#422);
#276=POINT_STYLE(' ',#423,POSITIVE_LENGTH_MEASURE(1.0E-006),#424);
#277=CARTESIAN_POINT('',(10.0,9.2,0.0));
#278=SURFACE_STYLE_USAGE(.BOTH.,#425);
#279=FACE_OUTER_BOUND('',#426,.T.);
#280=PLANE('',#427);
#281=POINT_STYLE(' ',#428,POSITIVE_LENGTH_MEASURE(1.0E-006),#429);
#282=CARTESIAN_POINT('',(0.8,0.515695155792198,-4.2));
#283=SURFACE_STYLE_USAGE(.BOTH.,#430);
#284=FACE_OUTER_BOUND('',#431,.T.);
#285=PLANE('',#432);
#286=POINT_STYLE(' ',#433,POSITIVE_LENGTH_MEASURE(1.0E-006),#434);
#287=CARTESIAN_POINT('',(9.9999999999,0.8,0.0));
#288=CURVE_STYLE('',#435,POSITIVE_LENGTH_MEASURE(1.0E-006),#436);
#289=CIRCLE('',#437,0.800000000000006);
#290=CURVE_STYLE('',#438,POSITIVE_LENGTH_MEASURE(1.0E-006),#439);
#291=LINE('',#440,#441);
#292=POINT_STYLE(' ',#442,POSITIVE_LENGTH_MEASURE(1.0E-006),#443);
#293=CARTESIAN_POINT('',(0.8,0.0,0.0));
#294=POINT_STYLE(' ',#444,POSITIVE_LENGTH_MEASURE(1.0E-006),#445);
#295=CARTESIAN_POINT('',(9.4843048442078,0.8,-4.2));
#296=CURVE_STYLE('',#446,POSITIVE_LENGTH_MEASURE(1.0E-006),#447);
#297=CIRCLE('',#448,0.8);
#298=CURVE_STYLE('',#449,POSITIVE_LENGTH_MEASURE(1.0E-006),#450);
#299=LINE('',#451,#452);
#300=CURVE_STYLE('',#453,POSITIVE_LENGTH_MEASURE(1.0E-006),#454);
#301=LINE('',#455,#456);
#302=CURVE_STYLE('',#457,POSITIVE_LENGTH_MEASURE(1.0E-006),#458);
#303=LINE('',#459,#460);
#304=PRODUCT_CONTEXT('',#61,'mechanical');
#305=PRODUCT_DEFINITION_FORMATION_WITH_SPECIFIED_SOURCE(' ','NONE',#176,.NOT_KNOWN.);
#306=CARTESIAN_POINT('',(0.0,0.0,0.0));
#307=DIRECTION('',(0.0,0.0,1.0));
#308=DIRECTION('',(1.0,0.0,0.0));
#309= (NAMED_UNIT(#184)LENGTH_UNIT()SI_UNIT(.MILLI.,.METRE.));
#310=SURFACE_SIDE_STYLE('',(#462));
#311=PRE_DEFINED_MARKER('');
#312=COLOUR_RGB('',0.800000011920929,0.800000011920929,0.800000011920929);
#313=DRAUGHTING_PRE_DEFINED_CURVE_FONT('continuous');
#314=COLOUR_RGB('',0.800000011920929,0.800000011920929,0.800000011920929);
#315=CARTESIAN_POINT('',(0.8,0.0,0.0));
#316=VECTOR('',#463,1.0);
#317=SURFACE_SIDE_STYLE('',(#464));
#318=EDGE_LOOP('',(#465,#466,#467,#468,#469,#470,#471,#472));
#319=AXIS2_PLACEMENT_3D('',#473,#474,#475);
#320=SURFACE_SIDE_STYLE('',(#476));
#321=EDGE_LOOP('',(#477,#478,#479,#480,#481,#482,#483,#484));
#322=AXIS2_PLACEMENT_3D('',#485,#486,#487);
#323=SURFACE_SIDE_STYLE('',(#488));
#324=EDGE_LOOP('',(#489,#490,#491,#492));
#325=AXIS2_PLACEMENT_3D('',#493,#494,#495);
#326=SURFACE_SIDE_STYLE('',(#496));
#327=EDGE_LOOP('',(#497,#498,#499,#500));
#328=AXIS2_PLACEMENT_3D('',#501,#502,#503);
#329=DRAUGHTING_PRE_DEFINED_CURVE_FONT('continuous');
#330=COLOUR_RGB('',0.800000011920929,0.800000011920929,0.800000011920929);
#331=CARTESIAN_POINT('',(10.0,0.8,0.0));
#332=VECTOR('',#504,1.0);
#333=PRE_DEFINED_MARKER('');
#334=COLOUR_RGB('',0.800000011920929,0.800000011920929,0.800000011920929);
#335=DRAUGHTING_PRE_DEFINED_CURVE_FONT('continuous');
#336=COLOUR_RGB('',0.800000011920929,0.800000011920929,0.800000011920929);
#337=CARTESIAN_POINT('',(9.2,9.9999999999,0.0));
#338=VECTOR('',#505,1.0);
#339=DRAUGHTING_PRE_DEFINED_CURVE_FONT('continuous');
#340=COLOUR_RGB('',0.800000011920929,0.800000011920929,0.800000011920929);
#341=CARTESIAN_POINT('',(0.800000000000001,10.0,0.0));
#342=VECTOR('',#506,1.0);
#343=PRE_DEFINED_MARKER('');
#344=COLOUR_RGB('',0.800000011920929,0.800000011920929,0.800000011920929);
#345=PRE_DEFINED_MARKER('');
#346=COLOUR_RGB('',0.800000011920929,0.800000011920929,0.800000011920929);
#347=DRAUGHTING_PRE_DEFINED_CURVE_FONT('continuous');
#348=COLOUR_RGB('',0.800000011920929,0.800000011920929,0.800000011920929);
#349=CARTESIAN_POINT('',(0.8,0.515695155792198,-4.2));
#350=VECTOR('',#507,1.0);
#351=PRE_DEFINED_MARKER('');
#352=COLOUR_RGB('',0.800000011920929,0.800000011920929,0.800000011920929);
#353=SURFACE_SIDE_STYLE('',(#508));
#354=EDGE_LOOP('',(#509,#510,#511,#512));
#355=AXIS2_PLACEMENT_3D('',#513,#514,#515);
#356=PRE_DEFINED_MARKER('');
#357=COLOUR_RGB('',0.800000011920929,0.800000011920929,0.800000011920929);
#358=PRE_DEFINED_MARKER('');
#359=COLOUR_RGB('',0.800000011920929,0.800000011920929,0.800000011920929);
#360=DRAUGHTING_PRE_DEFINED_CURVE_FONT('continuous');
#361=COLOUR_RGB('',0.800000011920929,0.800000011920929,0.800000011920929);
#362=AXIS2_PLACEMENT_3D('',#516,#517,#518);
#363=DRAUGHTING_PRE_DEFINED_CURVE_FONT('continuous');
#364=COLOUR_RGB('',0.800000011920929,0.800000011920929,0.800000011920929);
#365=AXIS2_PLACEMENT_3D('',#519,#520,#521);
#366=DRAUGHTING_PRE_DEFINED_CURVE_FONT('continuous');
#367=COLOUR_RGB('',0.800000011920929,0.800000011920929,0.800000011920929);
#368=CARTESIAN_POINT('',(0.515695155792198,9.2,-4.2));
#369=VECTOR('',#522,1.0);
#370=SURFACE_SIDE_STYLE('',(#523));
#371=EDGE_LOOP('',(#524,#525,#526,#527));
#372=AXIS2_PLACEMENT_3D('',#528,#529,#530);
#373=PRE_DEFINED_MARKER('');
#374=COLOUR_RGB('',0.800000011920929,0.800000011920929,0.800000011920929);
#375=PRE_DEFINED_MARKER('');
#376=COLOUR_RGB('',0.800000011920929,0.800000011920929,0.800000011920929);
#377=PRE_DEFINED_MARKER('');
#378=COLOUR_RGB('',0.800000011920929,0.800000011920929,0.800000011920929);
#379=DRAUGHTING_PRE_DEFINED_CURVE_FONT('continuous');
#380=COLOUR_RGB('',0.800000011920929,0.800000011920929,0.800000011920929);
#381=AXIS2_PLACEMENT_3D('',#531,#532,#533);
#382=DRAUGHTING_PRE_DEFINED_CURVE_FONT('continuous');
#383=COLOUR_RGB('',0.800000011920929,0.800000011920929,0.800000011920929);
#384=CARTESIAN_POINT('',(0.0,0.800000000000001,0.0));
#385=VECTOR('',#534,1.0);
#386=PRE_DEFINED_MARKER('');
#387=COLOUR_RGB('',0.800000011920929,0.800000011920929,0.800000011920929);
#388=DRAUGHTING_PRE_DEFINED_CURVE_FONT('continuous');
#389=COLOUR_RGB('',0.800000011920929,0.800000011920929,0.800000011920929);
#390=CARTESIAN_POINT('',(1.00000341340944E-010,9.2,0.0));
#391=VECTOR('',#535,1.0);
#392=DRAUGHTING_PRE_DEFINED_CURVE_FONT('continuous');
#393=COLOUR_RGB('',0.800000011920929,0.800000011920929,0.800000011920929);
#394=AXIS2_PLACEMENT_3D('',#536,#537,#538);
#395=DRAUGHTING_PRE_DEFINED_CURVE_FONT('continuous');
#396=COLOUR_RGB('',0.800000011920929,0.800000011920929,0.800000011920929);
#397=CARTESIAN_POINT('',(0.8,0.0,0.0));
#398=VECTOR('',#539,1.0);
#399=SURFACE_SIDE_STYLE('',(#540));
#400=EDGE_LOOP('',(#541,#542,#543,#544));
#401=AXIS2_PLACEMENT_3D('',#545,#546,#547);
#402=DRAUGHTING_PRE_DEFINED_CURVE_FONT('continuous');
#403=COLOUR_RGB('',0.800000011920929,0.800000011920929,0.800000011920929);
#404=CARTESIAN_POINT('',(9.2,9.4843048442078,-4.2));
#405=VECTOR('',#548,1.0);
#406=SURFACE_SIDE_STYLE('',(#549));
#407=EDGE_LOOP('',(#550,#551,#552,#553));
#408=AXIS2_PLACEMENT_3D('',#554,#555,#556);
#409=DRAUGHTING_PRE_DEFINED_CURVE_FONT('continuous');
#410=COLOUR_RGB('',0.800000011920929,0.800000011920929,0.800000011920929);
#411=AXIS2_PLACEMENT_3D('',#557,#558,#559);
#412=DRAUGHTING_PRE_DEFINED_CURVE_FONT('continuous');
#413=COLOUR_RGB('',0.800000011920929,0.800000011920929,0.800000011920929);
#414=AXIS2_PLACEMENT_3D('',#560,#561,#562);
#415=DRAUGHTING_PRE_DEFINED_CURVE_FONT('continuous');
#416=COLOUR_RGB('',0.800000011920929,0.800000011920929,0.800000011920929);
#417=CARTESIAN_POINT('',(9.2,10.0,0.0));
#418=VECTOR('',#563,1.0);
#419=DRAUGHTING_PRE_DEFINED_CURVE_FONT('continuous');
#420=COLOUR_RGB('',0.800000011920929,0.800000011920929,0.800000011920929);
#421=CARTESIAN_POINT('',(9.9999999999,0.8,0.0));
#422=VECTOR('',#564,1.0);
#423=PRE_DEFINED_MARKER('');
#424=COLOUR_RGB('',0.800000011920929,0.800000011920929,0.800000011920929);
#425=SURFACE_SIDE_STYLE('',(#565));
#426=EDGE_LOOP('',(#566,#567,#568,#569));
#427=AXIS2_PLACEMENT_3D('',#570,#571,#572);
#428=PRE_DEFINED_MARKER('');
#429=COLOUR_RGB('',0.800000011920929,0.800000011920929,0.800000011920929);
#430=SURFACE_SIDE_STYLE('',(#573));
#431=EDGE_LOOP('',(#574,#575,#576,#577));
#432=AXIS2_PLACEMENT_3D('',#578,#579,#580);
#433=PRE_DEFINED_MARKER('');
#434=COLOUR_RGB('',0.800000011920929,0.800000011920929,0.800000011920929);
#435=DRAUGHTING_PRE_DEFINED_CURVE_FONT('continuous');
#436=COLOUR_RGB('',0.800000011920929,0.800000011920929,0.800000011920929);
#437=AXIS2_PLACEMENT_3D('',#581,#582,#583);
#438=DRAUGHTING_PRE_DEFINED_CURVE_FONT('continuous');
#439=COLOUR_RGB('',0.800000011920929,0.800000011920929,0.800000011920929);
#440=CARTESIAN_POINT('',(9.2,0.0,0.0));
#441=VECTOR('',#584,1.0);
#442=PRE_DEFINED_MARKER('');
#443=COLOUR_RGB('',0.800000011920929,0.800000011920929,0.800000011920929);
#444=PRE_DEFINED_MARKER('');
#445=COLOUR_RGB('',0.800000011920929,0.800000011920929,0.800000011920929);
#446=DRAUGHTING_PRE_DEFINED_CURVE_FONT('continuous');
#447=COLOUR_RGB('',0.800000011920929,0.800000011920929,0.800000011920929);
#448=AXIS2_PLACEMENT_3D('',#585,#586,#587);
#449=DRAUGHTING_PRE_DEFINED_CURVE_FONT('continuous');
#450=COLOUR_RGB('',0.800000011920929,0.800000011920929,0.800000011920929);
#451=CARTESIAN_POINT('',(9.4843048442078,0.8,-4.2));
#452=VECTOR('',#588,1.0);
#453=DRAUGHTING_PRE_DEFINED_CURVE_FONT('continuous');
#454=COLOUR_RGB('',0.800000011920929,0.800000011920929,0.800000011920929);
#455=CARTESIAN_POINT('',(10.0,9.2,0.0));
#456=VECTOR('',#589,1.0);
#457=DRAUGHTING_PRE_DEFINED_CURVE_FONT('continuous');
#458=COLOUR_RGB('',0.800000011920929,0.800000011920929,0.800000011920929);
#459=CARTESIAN_POINT('',(0.0,9.2,0.0));
#460=VECTOR('',#590,1.0);
#462=SURFACE_STYLE_FILL_AREA(#591);
#463=DIRECTION('',(0.0,0.121869343405147,-0.992546151641322));
#464=SURFACE_STYLE_FILL_AREA(#592);
#465=ORIENTED_EDGE('',*,*,#135,.T.);
#466=ORIENTED_EDGE('',*,*,#169,.T.);
#467=ORIENTED_EDGE('',*,*,#89,.T.);
#468=ORIENTED_EDGE('',*,*,#161,.T.);
#469=ORIENTED_EDGE('',*,*,#147,.T.);
#470=ORIENTED_EDGE('',*,*,#111,.T.);
#471=ORIENTED_EDGE('',*,*,#175,.T.);
#472=ORIENTED_EDGE('',*,*,#113,.T.);
#473=CARTESIAN_POINT('',(5.0,5.0,0.0));
#474=DIRECTION('',(0.0,0.0,1.0));
#475=DIRECTION('',(1.0,0.0,0.0));
#476=SURFACE_STYLE_FILL_AREA(#593);
#477=ORIENTED_EDGE('',*,*,#125,.F.);
#478=ORIENTED_EDGE('',*,*,#101,.F.);
#479=ORIENTED_EDGE('',*,*,#143,.F.);
#480=ORIENTED_EDGE('',*,*,#115,.F.);
#481=ORIENTED_EDGE('',*,*,#145,.F.);
#482=ORIENTED_EDGE('',*,*,#139,.F.);
#483=ORIENTED_EDGE('',*,*,#133,.F.);
#484=ORIENTED_EDGE('',*,*,#171,.F.);
#485=CARTESIAN_POINT('',(5.0,5.0,-4.2));
#486=DIRECTION('',(0.0,0.0,1.0));
#487=DIRECTION('',(1.0,0.0,0.0));
#488=SURFACE_STYLE_FILL_AREA(#594);
#489=ORIENTED_EDGE('',*,*,#171,.T.);
#490=ORIENTED_EDGE('',*,*,#173,.F.);
#491=ORIENTED_EDGE('',*,*,#89,.F.);
#492=ORIENTED_EDGE('',*,*,#149,.T.);
#493=CARTESIAN_POINT('',(9.9999999999,0.8,0.0));
#494=DIRECTION('',(0.992546151644181,-0.0,-0.121869343381866));
#495=DIRECTION('',(-0.0,-1.0,0.0));
#496=SURFACE_STYLE_FILL_AREA(#595);
#497=ORIENTED_EDGE('',*,*,#143,.T.);
#498=ORIENTED_EDGE('',*,*,#79,.F.);
#499=ORIENTED_EDGE('',*,*,#113,.F.);
#500=ORIENTED_EDGE('',*,*,#127,.T.);
#501=CARTESIAN_POINT('',(0.8000000001,0.8000000001,0.0));
#502=DIRECTION('',(0.0,-0.0,1.0));
#503=DIRECTION('',(-1.0,-1.24999455231034E-010,0.0));
#504=DIRECTION('',(0.0,1.0,0.0));
#505=DIRECTION('',(0.0,-0.121869343381866,-0.992546151644181));
#506=DIRECTION('',(1.52342680182986E-011,-0.121869343428428,-0.992546151638464));
#507=DIRECTION('',(1.0,0.0,0.0));
#508=SURFACE_STYLE_FILL_AREA(#596);
#509=ORIENTED_EDGE('',*,*,#133,.T.);
#510=ORIENTED_EDGE('',*,*,#93,.F.);
#511=ORIENTED_EDGE('',*,*,#161,.F.);
#512=ORIENTED_EDGE('',*,*,#173,.T.);
#513=CARTESIAN_POINT('',(9.19999999989999,9.1999999999,0.0));
#514=DIRECTION('',(-0.0,-0.0,1.0));
#515=DIRECTION('',(1.0,1.25004451234644E-010,0.0));
#516=CARTESIAN_POINT('',(0.800000000100005,9.1999999999,0.0));
#517=DIRECTION('',(0.0,0.0,1.0));
#518=DIRECTION('',(-1.25005977791303E-010,1.0,0.0));
#519=CARTESIAN_POINT('',(0.8000000001,0.8000000001,0.0));
#520=DIRECTION('',(0.0,0.0,1.0));
#521=DIRECTION('',(-1.0,-1.24999455231034E-010,0.0));
#522=DIRECTION('',(0.0,-1.0,0.0));
#523=SURFACE_STYLE_FILL_AREA(#597);
#524=ORIENTED_EDGE('',*,*,#145,.T.);
#525=ORIENTED_EDGE('',*,*,#131,.F.);
#526=ORIENTED_EDGE('',*,*,#111,.F.);
#527=ORIENTED_EDGE('',*,*,#95,.T.);
#528=CARTESIAN_POINT('',(0.800000000100005,9.1999999999,0.0));
#529=DIRECTION('',(-0.0,-0.0,1.0));
#530=DIRECTION('',(-1.25005977791303E-010,1.0,0.0));
#531=CARTESIAN_POINT('',(9.1999999999,0.800000000100001,-4.2));
#532=DIRECTION('',(0.0,0.0,1.0));
#533=DIRECTION('',(1.25000010342546E-010,-1.0,0.0));
#534=DIRECTION('',(0.121869343428428,1.52335333865716E-011,-0.992546151638464));
#535=DIRECTION('',(0.121869343381866,0.0,-0.992546151644181));
#536=CARTESIAN_POINT('',(9.19999999989999,9.1999999999,-4.2));
#537=DIRECTION('',(0.0,-0.0,1.0));
#538=DIRECTION('',(1.0,1.25004451234644E-010,0.0));
#539=DIRECTION('',(1.0,0.0,0.0));
#540=SURFACE_STYLE_FILL_AREA(#598);
#541=ORIENTED_EDGE('',*,*,#125,.T.);
#542=ORIENTED_EDGE('',*,*,#149,.F.);
#543=ORIENTED_EDGE('',*,*,#169,.F.);
#544=ORIENTED_EDGE('',*,*,#163,.T.);
#545=CARTESIAN_POINT('',(9.1999999999,0.800000000100001,0.0));
#546=DIRECTION('',(-0.0,-0.0,1.0));
#547=DIRECTION('',(1.25000010342546E-010,-1.0,0.0));
#548=DIRECTION('',(-1.0,0.0,0.0));
#549=SURFACE_STYLE_FILL_AREA(#599);
#550=ORIENTED_EDGE('',*,*,#139,.T.);
#551=ORIENTED_EDGE('',*,*,#95,.F.);
#552=ORIENTED_EDGE('',*,*,#147,.F.);
#553=ORIENTED_EDGE('',*,*,#93,.T.);
#554=CARTESIAN_POINT('',(9.2,9.9999999999,0.0));
#555=DIRECTION('',(0.0,0.992546151644181,-0.121869343381866));
#556=DIRECTION('',(1.0,-0.0,0.0));
#557=CARTESIAN_POINT('',(0.8000000001,0.8000000001,-4.2));
#558=DIRECTION('',(0.0,0.0,1.0));
#559=DIRECTION('',(-1.0,-1.24999455231034E-010,0.0));
#560=CARTESIAN_POINT('',(0.800000000100005,9.1999999999,-4.2));
#561=DIRECTION('',(0.0,0.0,1.0));
#562=DIRECTION('',(-1.25005977791303E-010,1.0,0.0));
#563=DIRECTION('',(-1.0,0.0,0.0));
#564=DIRECTION('',(-0.121869343381866,0.0,-0.992546151644181));
#565=SURFACE_STYLE_FILL_AREA(#600);
#566=ORIENTED_EDGE('',*,*,#101,.T.);
#567=ORIENTED_EDGE('',*,*,#163,.F.);
#568=ORIENTED_EDGE('',*,*,#135,.F.);
#569=ORIENTED_EDGE('',*,*,#79,.T.);
#570=CARTESIAN_POINT('',(0.8,0.0,0.0));
#571=DIRECTION('',(-0.0,-0.992546151641322,-0.121869343405147));
#572=DIRECTION('',(-1.0,0.0,0.0));
#573=SURFACE_STYLE_FILL_AREA(#601);
#574=ORIENTED_EDGE('',*,*,#115,.T.);
#575=ORIENTED_EDGE('',*,*,#127,.F.);
#576=ORIENTED_EDGE('',*,*,#175,.F.);
#577=ORIENTED_EDGE('',*,*,#131,.T.);
#578=CARTESIAN_POINT('',(1.00000341340944E-010,9.2,0.0));
#579=DIRECTION('',(-0.992546151644181,0.0,-0.121869343381866));
#580=DIRECTION('',(0.0,1.0,0.0));
#581=CARTESIAN_POINT('',(9.19999999989999,9.1999999999,0.0));
#582=DIRECTION('',(0.0,-0.0,1.0));
#583=DIRECTION('',(1.0,1.25004451234644E-010,0.0));
#584=DIRECTION('',(-1.52337432813507E-011,0.121869343428428,-0.992546151638464));
#585=CARTESIAN_POINT('',(9.1999999999,0.800000000100001,0.0));
#586=DIRECTION('',(0.0,0.0,1.0));
#587=DIRECTION('',(1.25000010342546E-010,-1.0,0.0));
#588=DIRECTION('',(0.0,1.0,0.0));
#589=DIRECTION('',(-0.121869343428428,-1.5234163070909E-011,-0.992546151638464));
#590=DIRECTION('',(0.0,-1.0,0.0));
#591=FILL_AREA_STYLE('',(#602));
#592=FILL_AREA_STYLE('',(#603));
#593=FILL_AREA_STYLE('',(#604));
#594=FILL_AREA_STYLE('',(#605));
#595=FILL_AREA_STYLE('',(#606));
#596=FILL_AREA_STYLE('',(#607));
#597=FILL_AREA_STYLE('',(#608));
#598=FILL_AREA_STYLE('',(#609));
#599=FILL_AREA_STYLE('',(#610));
#600=FILL_AREA_STYLE('',(#611));
#601=FILL_AREA_STYLE('',(#612));
#602=FILL_AREA_STYLE_COLOUR('',#613);
#603=FILL_AREA_STYLE_COLOUR('',#614);
#604=FILL_AREA_STYLE_COLOUR('',#615);
#605=FILL_AREA_STYLE_COLOUR('',#616);
#606=FILL_AREA_STYLE_COLOUR('',#617);
#607=FILL_AREA_STYLE_COLOUR('',#618);
#608=FILL_AREA_STYLE_COLOUR('',#619);
#609=FILL_AREA_STYLE_COLOUR('',#620);
#610=FILL_AREA_STYLE_COLOUR('',#621);
#611=FILL_AREA_STYLE_COLOUR('',#622);
#612=FILL_AREA_STYLE_COLOUR('',#623);
#613=COLOUR_RGB('',0.800000011920929,0.800000011920929,0.800000011920929);
#614=COLOUR_RGB('',0.800000011920929,0.800000011920929,0.800000011920929);
#615=COLOUR_RGB('',0.800000011920929,0.800000011920929,0.800000011920929);
#616=COLOUR_RGB('',0.800000011920929,0.800000011920929,0.800000011920929);
#617=COLOUR_RGB('',0.800000011920929,0.800000011920929,0.800000011920929);
#618=COLOUR_RGB('',0.800000011920929,0.800000011920929,0.800000011920929);
#619=COLOUR_RGB('',0.800000011920929,0.800000011920929,0.800000011920929);
#620=COLOUR_RGB('',0.800000011920929,0.800000011920929,0.800000011920929);
#621=COLOUR_RGB('',0.800000011920929,0.800000011920929,0.800000011920929);
#622=COLOUR_RGB('',0.800000011920929,0.800000011920929,0.800000011920929);
#623=COLOUR_RGB('',0.800000011920929,0.800000011920929,0.800000011920929);
#624=AXIS2_PLACEMENT_3D('PCS',#625,#626,#627);
#625=CARTESIAN_POINT('',(0.0,0.0,0.0));
#626=DIRECTION('',(0.0,0.0,1.0));
#627=DIRECTION('',(1.0,0.0,0.0));
#628=AXIS2_PLACEMENT_3D('MCS',#629,#630,#631);
#629=CARTESIAN_POINT('',(5.0,5.0,0.0));
#630=DIRECTION('',(0.0,0.0,1.0));
#631=DIRECTION('',(1.0,0.0,0.0));
#632=CONSTRUCTIVE_GEOMETRY_REPRESENTATION_RELATIONSHIP('coordinate systems',$,#65,#633);
#633=CONSTRUCTIVE_GEOMETRY_REPRESENTATION('coordinate systems',(#624,#628),#6);
ENDSEC;
END-ISO-10303-21;
