ISO-10303-21;
HEADER;
FILE_DESCRIPTION(('no description'),'unknown implementation level');
FILE_NAME('solidXoJuCKReiyM4kNxEV2Rf4C26_8g_1.STP','  ',('CIMSOURCE GmbH'),('CADClick - KiM GmbH - www.kimweb.de'),'unknown preprocess','ACIS','unknown authorization');
FILE_SCHEMA(('automotive_design'));
ENDSEC;
DATA;
#1=MECHANICAL_DESIGN_GEOMETRIC_PRESENTATION_REPRESENTATION(' ',(#10,#11,#12,#13,#14,#15,#16,#17,#18,#19,#20,#21,#22,#23,#24,#25,#26,#27,#28,#29,#30,#31,#32,#33,#34,#35,#36,#37,#38,#39,#40,#41,#42,#43,#44,#45,#46,#47,#48,#49,#50,#51,#52,#53,#54,#55,#56,#57,#58,#59,#60),#6);
#2=PRODUCT_DEFINITION_CONTEXT('',#61,'design');
#3=APPLICATION_PROTOCOL_DEFINITION('INTERNATIONAL STANDARD','automotive_design',1994,#61);
#4=PRODUCT_CATEGORY_RELATIONSHIP('NONE','NONE',#62,#63);
#5=SHAPE_DEFINITION_REPRESENTATION(#64,#65);
#6= (GEOMETRIC_REPRESENTATION_CONTEXT(3)GLOBAL_UNCERTAINTY_ASSIGNED_CONTEXT((#68))GLOBAL_UNIT_ASSIGNED_CONTEXT((#70,#71,#72))REPRESENTATION_CONTEXT('NONE','WORKSPACE'));
#10=STYLED_ITEM('',(#74),#75);
#11=STYLED_ITEM('',(#76),#77);
#12=STYLED_ITEM('',(#78),#79);
#13=STYLED_ITEM('',(#80),#81);
#14=STYLED_ITEM('',(#82),#83);
#15=STYLED_ITEM('',(#84),#85);
#16=STYLED_ITEM('',(#86),#87);
#17=STYLED_ITEM('',(#88),#89);
#18=STYLED_ITEM('',(#90),#91);
#19=STYLED_ITEM('',(#92),#93);
#20=STYLED_ITEM('',(#94),#95);
#21=STYLED_ITEM('',(#96),#97);
#22=STYLED_ITEM('',(#98),#99);
#23=STYLED_ITEM('',(#100),#101);
#24=STYLED_ITEM('',(#102),#103);
#25=STYLED_ITEM('',(#104),#105);
#26=STYLED_ITEM('',(#106),#107);
#27=STYLED_ITEM('',(#108),#109);
#28=STYLED_ITEM('',(#110),#111);
#29=STYLED_ITEM('',(#112),#113);
#30=STYLED_ITEM('',(#114),#115);
#31=STYLED_ITEM('',(#116),#117);
#32=STYLED_ITEM('',(#118),#119);
#33=STYLED_ITEM('',(#120),#121);
#34=STYLED_ITEM('',(#122),#123);
#35=STYLED_ITEM('',(#124),#125);
#36=STYLED_ITEM('',(#126),#127);
#37=STYLED_ITEM('',(#128),#129);
#38=STYLED_ITEM('',(#130),#131);
#39=STYLED_ITEM('',(#132),#133);
#40=STYLED_ITEM('',(#134),#135);
#41=STYLED_ITEM('',(#136),#137);
#42=STYLED_ITEM('',(#138),#139);
#43=STYLED_ITEM('',(#140),#141);
#44=STYLED_ITEM('',(#142),#143);
#45=STYLED_ITEM('',(#144),#145);
#46=STYLED_ITEM('',(#146),#147);
#47=STYLED_ITEM('',(#148),#149);
#48=STYLED_ITEM('',(#150),#151);
#49=STYLED_ITEM('',(#152),#153);
#50=STYLED_ITEM('',(#154),#155);
#51=STYLED_ITEM('',(#156),#157);
#52=STYLED_ITEM('',(#158),#159);
#53=STYLED_ITEM('',(#160),#161);
#54=STYLED_ITEM('',(#162),#163);
#55=STYLED_ITEM('',(#164),#165);
#56=STYLED_ITEM('',(#166),#167);
#57=STYLED_ITEM('',(#168),#169);
#58=STYLED_ITEM('',(#170),#171);
#59=STYLED_ITEM('',(#172),#173);
#60=STYLED_ITEM('',(#174),#175);
#61=APPLICATION_CONTEXT(' ');
#62=PRODUCT_CATEGORY('part','NONE');
#63=PRODUCT_RELATED_PRODUCT_CATEGORY('detail',' ',(#176));
#64=PRODUCT_DEFINITION_SHAPE('NONE','NONE',#177);
#65=ADVANCED_BREP_SHAPE_REPRESENTATION('1',(#139,#178),#6);
#68=UNCERTAINTY_MEASURE_WITH_UNIT(LENGTH_MEASURE(1.0E-006),#70,'','');
#70= (CONVERSION_BASED_UNIT('MILLIMETRE',#181)LENGTH_UNIT()NAMED_UNIT(#184));
#71= (NAMED_UNIT(#186)PLANE_ANGLE_UNIT()SI_UNIT($,.RADIAN.));
#72= (NAMED_UNIT(#186)SOLID_ANGLE_UNIT()SI_UNIT($,.STERADIAN.));
#74=PRESENTATION_STYLE_ASSIGNMENT((#192));
#75=EDGE_CURVE('',#95,#143,#193,.T.);
#76=PRESENTATION_STYLE_ASSIGNMENT((#194));
#77=ADVANCED_FACE('',(#195),#196,.F.);
#78=PRESENTATION_STYLE_ASSIGNMENT((#197));
#79=EDGE_CURVE('',#169,#99,#198,.T.);
#80=PRESENTATION_STYLE_ASSIGNMENT((#199));
#81=VERTEX_POINT('',#200);
#82=PRESENTATION_STYLE_ASSIGNMENT((#201));
#83=ADVANCED_FACE('',(#202),#203,.T.);
#84=PRESENTATION_STYLE_ASSIGNMENT((#204));
#85=EDGE_CURVE('',#95,#117,#205,.T.);
#86=PRESENTATION_STYLE_ASSIGNMENT((#206));
#87=EDGE_CURVE('',#155,#167,#207,.T.);
#88=PRESENTATION_STYLE_ASSIGNMENT((#208));
#89=EDGE_CURVE('',#143,#147,#209,.T.);
#90=PRESENTATION_STYLE_ASSIGNMENT((#210));
#91=ADVANCED_FACE('',(#211),#212,.T.);
#92=PRESENTATION_STYLE_ASSIGNMENT((#213));
#93=VERTEX_POINT('',#214);
#94=PRESENTATION_STYLE_ASSIGNMENT((#215));
#95=VERTEX_POINT('',#216);
#96=PRESENTATION_STYLE_ASSIGNMENT((#217));
#97=ADVANCED_FACE('',(#218),#219,.T.);
#98=PRESENTATION_STYLE_ASSIGNMENT((#220));
#99=VERTEX_POINT('',#221);
#100=PRESENTATION_STYLE_ASSIGNMENT((#222));
#101=EDGE_CURVE('',#81,#95,#223,.T.);
#102=PRESENTATION_STYLE_ASSIGNMENT((#224));
#103=VERTEX_POINT('',#225);
#104=PRESENTATION_STYLE_ASSIGNMENT((#226));
#105=EDGE_CURVE('',#93,#103,#227,.T.);
#106=PRESENTATION_STYLE_ASSIGNMENT((#228));
#107=VERTEX_POINT('',#229);
#108=PRESENTATION_STYLE_ASSIGNMENT((#230));
#109=EDGE_CURVE('',#107,#171,#231,.T.);
#110=PRESENTATION_STYLE_ASSIGNMENT((#232));
#111=EDGE_CURVE('',#81,#149,#233,.T.);
#112=PRESENTATION_STYLE_ASSIGNMENT((#234));
#113=EDGE_CURVE('',#103,#171,#235,.T.);
#114=PRESENTATION_STYLE_ASSIGNMENT((#236));
#115=ADVANCED_FACE('',(#237),#238,.T.);
#116=PRESENTATION_STYLE_ASSIGNMENT((#239));
#117=VERTEX_POINT('',#240);
#118=PRESENTATION_STYLE_ASSIGNMENT((#241));
#119=EDGE_CURVE('',#117,#147,#242,.T.);
#120=PRESENTATION_STYLE_ASSIGNMENT((#243));
#121=EDGE_CURVE('',#173,#137,#244,.T.);
#122=PRESENTATION_STYLE_ASSIGNMENT((#245));
#123=EDGE_CURVE('',#107,#155,#246,.T.);
#124=PRESENTATION_STYLE_ASSIGNMENT((#247));
#125=EDGE_CURVE('',#137,#103,#248,.T.);
#126=PRESENTATION_STYLE_ASSIGNMENT((#249));
#127=ADVANCED_FACE('',(#250),#251,.T.);
#128=PRESENTATION_STYLE_ASSIGNMENT((#252));
#129=ADVANCED_FACE('',(#253),#254,.T.);
#130=PRESENTATION_STYLE_ASSIGNMENT((#255));
#131=EDGE_CURVE('',#147,#93,#256,.T.);
#132=PRESENTATION_STYLE_ASSIGNMENT((#257));
#133=ADVANCED_FACE('',(#258),#259,.T.);
#134=PRESENTATION_STYLE_ASSIGNMENT((#260));
#135=EDGE_CURVE('',#99,#149,#261,.T.);
#136=PRESENTATION_STYLE_ASSIGNMENT((#262));
#137=VERTEX_POINT('',#263);
#138=PRESENTATION_STYLE_ASSIGNMENT((#264));
#139=MANIFOLD_SOLID_BREP('1',#265);
#140=PRESENTATION_STYLE_ASSIGNMENT((#266));
#141=EDGE_CURVE('',#167,#99,#267,.T.);
#142=PRESENTATION_STYLE_ASSIGNMENT((#268));
#143=VERTEX_POINT('',#269);
#144=PRESENTATION_STYLE_ASSIGNMENT((#270));
#145=EDGE_CURVE('',#155,#169,#271,.T.);
#146=PRESENTATION_STYLE_ASSIGNMENT((#272));
#147=VERTEX_POINT('',#273);
#148=PRESENTATION_STYLE_ASSIGNMENT((#274));
#149=VERTEX_POINT('',#275);
#150=PRESENTATION_STYLE_ASSIGNMENT((#276));
#151=ADVANCED_FACE('',(#277),#278,.T.);
#152=PRESENTATION_STYLE_ASSIGNMENT((#279));
#153=ADVANCED_FACE('',(#280),#281,.T.);
#154=PRESENTATION_STYLE_ASSIGNMENT((#282));
#155=VERTEX_POINT('',#283);
#156=PRESENTATION_STYLE_ASSIGNMENT((#284));
#157=EDGE_CURVE('',#149,#143,#285,.T.);
#158=PRESENTATION_STYLE_ASSIGNMENT((#286));
#159=EDGE_CURVE('',#117,#173,#287,.T.);
#160=PRESENTATION_STYLE_ASSIGNMENT((#288));
#161=EDGE_CURVE('',#137,#107,#289,.T.);
#162=PRESENTATION_STYLE_ASSIGNMENT((#290));
#163=EDGE_CURVE('',#171,#167,#291,.T.);
#164=PRESENTATION_STYLE_ASSIGNMENT((#292));
#165=EDGE_CURVE('',#173,#93,#293,.T.);
#166=PRESENTATION_STYLE_ASSIGNMENT((#294));
#167=VERTEX_POINT('',#295);
#168=PRESENTATION_STYLE_ASSIGNMENT((#296));
#169=VERTEX_POINT('',#297);
#170=PRESENTATION_STYLE_ASSIGNMENT((#298));
#171=VERTEX_POINT('',#299);
#172=PRESENTATION_STYLE_ASSIGNMENT((#300));
#173=VERTEX_POINT('',#301);
#174=PRESENTATION_STYLE_ASSIGNMENT((#302));
#175=EDGE_CURVE('',#169,#81,#303,.T.);
#176=PRODUCT('1','1','PART-1-DESC',(#304));
#177=PRODUCT_DEFINITION('NONE','NONE',#305,#2);
#178=AXIS2_PLACEMENT_3D('',#306,#307,#308);
#181=LENGTH_MEASURE_WITH_UNIT(LENGTH_MEASURE(1.0),#309);
#184=DIMENSIONAL_EXPONENTS(1.0,0.0,0.0,0.0,0.0,0.0,0.0);
#186=DIMENSIONAL_EXPONENTS(0.0,0.0,0.0,0.0,0.0,0.0,0.0);
#192=CURVE_STYLE('',#310,POSITIVE_LENGTH_MEASURE(1.0E-006),#311);
#193=LINE('',#312,#313);
#194=SURFACE_STYLE_USAGE(.BOTH.,#314);
#195=FACE_OUTER_BOUND('',#315,.T.);
#196=PLANE('',#316);
#197=CURVE_STYLE('',#317,POSITIVE_LENGTH_MEASURE(1.0E-006),#318);
#198=LINE('',#319,#320);
#199=POINT_STYLE(' ',#321,POSITIVE_LENGTH_MEASURE(1.0E-006),#322);
#200=CARTESIAN_POINT('',(12.3,11.5,0.0));
#201=SURFACE_STYLE_USAGE(.BOTH.,#323);
#202=FACE_OUTER_BOUND('',#324,.T.);
#203=PLANE('',#325);
#204=CURVE_STYLE('',#326,POSITIVE_LENGTH_MEASURE(1.0E-006),#327);
#205=LINE('',#328,#329);
#206=CURVE_STYLE('',#330,POSITIVE_LENGTH_MEASURE(1.0E-006),#331);
#207=LINE('',#332,#333);
#208=CURVE_STYLE('',#334,POSITIVE_LENGTH_MEASURE(1.0E-006),#335);
#209=LINE('',#336,#337);
#210=SURFACE_STYLE_USAGE(.BOTH.,#338);
#211=FACE_OUTER_BOUND('',#339,.T.);
#212=PLANE('',#340);
#213=POINT_STYLE(' ',#341,POSITIVE_LENGTH_MEASURE(1.0E-006),#342);
#214=CARTESIAN_POINT('',(0.613922804514522,11.5,-5.0));
#215=POINT_STYLE(' ',#343,POSITIVE_LENGTH_MEASURE(1.0E-006),#344);
#216=CARTESIAN_POINT('',(11.5,12.2999999999,0.0));
#217=SURFACE_STYLE_USAGE(.BOTH.,#345);
#218=FACE_OUTER_BOUND('',#346,.T.);
#219=CONICAL_SURFACE('',#347,0.800000000000004,0.122173047639603);
#220=POINT_STYLE(' ',#348,POSITIVE_LENGTH_MEASURE(1.0E-006),#349);
#221=CARTESIAN_POINT('',(11.6860771954855,0.8,-5.0));
#222=CURVE_STYLE('',#350,POSITIVE_LENGTH_MEASURE(1.0E-006),#351);
#223=CIRCLE('',#352,0.800000000000006);
#224=POINT_STYLE(' ',#353,POSITIVE_LENGTH_MEASURE(1.0E-006),#354);
#225=CARTESIAN_POINT('',(0.613922804614522,0.80000000007674,-5.0));
#226=CURVE_STYLE('',#355,POSITIVE_LENGTH_MEASURE(1.0E-006),#356);
#227=LINE('',#357,#358);
#228=POINT_STYLE(' ',#359,POSITIVE_LENGTH_MEASURE(1.0E-006),#360);
#229=CARTESIAN_POINT('',(0.8,0.0,0.0));
#230=CURVE_STYLE('',#361,POSITIVE_LENGTH_MEASURE(1.0E-006),#362);
#231=LINE('',#363,#364);
#232=CURVE_STYLE('',#365,POSITIVE_LENGTH_MEASURE(1.0E-006),#366);
#233=LINE('',#367,#368);
#234=CURVE_STYLE('',#369,POSITIVE_LENGTH_MEASURE(1.0E-006),#370);
#235=CIRCLE('',#371,0.186077195485478);
#236=SURFACE_STYLE_USAGE(.BOTH.,#372);
#237=FACE_OUTER_BOUND('',#373,.T.);
#238=CONICAL_SURFACE('',#374,0.800000000000006,0.122173047639603);
#239=POINT_STYLE(' ',#375,POSITIVE_LENGTH_MEASURE(1.0E-006),#376);
#240=CARTESIAN_POINT('',(0.800000000000001,12.3,0.0));
#241=CURVE_STYLE('',#377,POSITIVE_LENGTH_MEASURE(1.0E-006),#378);
#242=LINE('',#379,#380);
#243=CURVE_STYLE('',#381,POSITIVE_LENGTH_MEASURE(1.0E-006),#382);
#244=LINE('',#383,#384);
#245=CURVE_STYLE('',#385,POSITIVE_LENGTH_MEASURE(1.0E-006),#386);
#246=LINE('',#387,#388);
#247=CURVE_STYLE('',#389,POSITIVE_LENGTH_MEASURE(1.0E-006),#390);
#248=LINE('',#391,#392);
#249=SURFACE_STYLE_USAGE(.BOTH.,#393);
#250=FACE_OUTER_BOUND('',#394,.T.);
#251=PLANE('',#395);
#252=SURFACE_STYLE_USAGE(.BOTH.,#396);
#253=FACE_OUTER_BOUND('',#397,.T.);
#254=CONICAL_SURFACE('',#398,0.8,0.122173047639603);
#255=CURVE_STYLE('',#399,POSITIVE_LENGTH_MEASURE(1.0E-006),#400);
#256=CIRCLE('',#401,0.186077195485483);
#257=SURFACE_STYLE_USAGE(.BOTH.,#402);
#258=FACE_OUTER_BOUND('',#403,.T.);
#259=PLANE('',#404);
#260=CURVE_STYLE('',#405,POSITIVE_LENGTH_MEASURE(1.0E-006),#406);
#261=LINE('',#407,#408);
#262=POINT_STYLE(' ',#409,POSITIVE_LENGTH_MEASURE(1.0E-006),#410);
#263=CARTESIAN_POINT('',(0.0,0.800000000000001,0.0));
#264=SURFACE_STYLE_USAGE(.BOTH.,#411);
#265=CLOSED_SHELL('',(#151,#153,#115,#127,#97,#133,#129,#83,#77,#91));
#266=CURVE_STYLE('',#412,POSITIVE_LENGTH_MEASURE(1.0E-006),#413);
#267=CIRCLE('',#414,0.186077195485479);
#268=POINT_STYLE(' ',#415,POSITIVE_LENGTH_MEASURE(1.0E-006),#416);
#269=CARTESIAN_POINT('',(11.5,11.6860771954855,-5.0));
#270=CURVE_STYLE('',#417,POSITIVE_LENGTH_MEASURE(1.0E-006),#418);
#271=CIRCLE('',#419,0.8);
#272=POINT_STYLE(' ',#420,POSITIVE_LENGTH_MEASURE(1.0E-006),#421);
#273=CARTESIAN_POINT('',(0.800000000076744,11.6860771953855,-5.0));
#274=POINT_STYLE(' ',#422,POSITIVE_LENGTH_MEASURE(1.0E-006),#423);
#275=CARTESIAN_POINT('',(11.6860771953855,11.4999999999233,-5.0));
#276=SURFACE_STYLE_USAGE(.BOTH.,#424);
#277=FACE_OUTER_BOUND('',#425,.T.);
#278=CONICAL_SURFACE('',#426,0.8,0.122173047639603);
#279=SURFACE_STYLE_USAGE(.BOTH.,#427);
#280=FACE_OUTER_BOUND('',#428,.T.);
#281=PLANE('',#429);
#282=POINT_STYLE(' ',#430,POSITIVE_LENGTH_MEASURE(1.0E-006),#431);
#283=CARTESIAN_POINT('',(11.5,0.0,0.0));
#284=CURVE_STYLE('',#432,POSITIVE_LENGTH_MEASURE(1.0E-006),#433);
#285=CIRCLE('',#434,0.186077195485484);
#286=CURVE_STYLE('',#435,POSITIVE_LENGTH_MEASURE(1.0E-006),#436);
#287=CIRCLE('',#437,0.800000000000004);
#288=CURVE_STYLE('',#438,POSITIVE_LENGTH_MEASURE(1.0E-006),#439);
#289=CIRCLE('',#440,0.8);
#290=CURVE_STYLE('',#441,POSITIVE_LENGTH_MEASURE(1.0E-006),#442);
#291=LINE('',#443,#444);
#292=CURVE_STYLE('',#445,POSITIVE_LENGTH_MEASURE(1.0E-006),#446);
#293=LINE('',#447,#448);
#294=POINT_STYLE(' ',#449,POSITIVE_LENGTH_MEASURE(1.0E-006),#450);
#295=CARTESIAN_POINT('',(11.4999999999233,0.613922804614522,-5.0));
#296=POINT_STYLE(' ',#451,POSITIVE_LENGTH_MEASURE(1.0E-006),#452);
#297=CARTESIAN_POINT('',(12.2999999999,0.8,0.0));
#298=POINT_STYLE(' ',#453,POSITIVE_LENGTH_MEASURE(1.0E-006),#454);
#299=CARTESIAN_POINT('',(0.8,0.613922804514522,-5.0));
#300=POINT_STYLE(' ',#455,POSITIVE_LENGTH_MEASURE(1.0E-006),#456);
#301=CARTESIAN_POINT('',(1.00000341340944E-010,11.5,0.0));
#302=CURVE_STYLE('',#457,POSITIVE_LENGTH_MEASURE(1.0E-006),#458);
#303=LINE('',#459,#460);
#304=PRODUCT_CONTEXT('',#61,'mechanical');
#305=PRODUCT_DEFINITION_FORMATION_WITH_SPECIFIED_SOURCE(' ','NONE',#176,.NOT_KNOWN.);
#306=CARTESIAN_POINT('',(0.0,0.0,0.0));
#307=DIRECTION('',(0.0,0.0,1.0));
#308=DIRECTION('',(1.0,0.0,0.0));
#309= (NAMED_UNIT(#184)LENGTH_UNIT()SI_UNIT(.MILLI.,.METRE.));
#310=DRAUGHTING_PRE_DEFINED_CURVE_FONT('continuous');
#311=COLOUR_RGB('',0.800000011920929,0.800000011920929,0.800000011920929);
#312=CARTESIAN_POINT('',(11.5,12.2999999999,0.0));
#313=VECTOR('',#462,1.0);
#314=SURFACE_SIDE_STYLE('',(#463));
#315=EDGE_LOOP('',(#464,#465,#466,#467,#468,#469,#470,#471));
#316=AXIS2_PLACEMENT_3D('',#472,#473,#474);
#317=DRAUGHTING_PRE_DEFINED_CURVE_FONT('continuous');
#318=COLOUR_RGB('',0.800000011920929,0.800000011920929,0.800000011920929);
#319=CARTESIAN_POINT('',(12.2999999999,0.8,0.0));
#320=VECTOR('',#475,1.0);
#321=PRE_DEFINED_MARKER('');
#322=COLOUR_RGB('',0.800000011920929,0.800000011920929,0.800000011920929);
#323=SURFACE_SIDE_STYLE('',(#476));
#324=EDGE_LOOP('',(#477,#478,#479,#480));
#325=AXIS2_PLACEMENT_3D('',#481,#482,#483);
#326=DRAUGHTING_PRE_DEFINED_CURVE_FONT('continuous');
#327=COLOUR_RGB('',0.800000011920929,0.800000011920929,0.800000011920929);
#328=CARTESIAN_POINT('',(11.5,12.3,0.0));
#329=VECTOR('',#484,1.0);
#330=DRAUGHTING_PRE_DEFINED_CURVE_FONT('continuous');
#331=COLOUR_RGB('',0.800000011920929,0.800000011920929,0.800000011920929);
#332=CARTESIAN_POINT('',(11.5,0.0,0.0));
#333=VECTOR('',#485,1.0);
#334=DRAUGHTING_PRE_DEFINED_CURVE_FONT('continuous');
#335=COLOUR_RGB('',0.800000011920929,0.800000011920929,0.800000011920929);
#336=CARTESIAN_POINT('',(11.5,11.6860771954855,-5.0));
#337=VECTOR('',#486,1.0);
#338=SURFACE_SIDE_STYLE('',(#487));
#339=EDGE_LOOP('',(#488,#489,#490,#491,#492,#493,#494,#495));
#340=AXIS2_PLACEMENT_3D('',#496,#497,#498);
#341=PRE_DEFINED_MARKER('');
#342=COLOUR_RGB('',0.800000011920929,0.800000011920929,0.800000011920929);
#343=PRE_DEFINED_MARKER('');
#344=COLOUR_RGB('',0.800000011920929,0.800000011920929,0.800000011920929);
#345=SURFACE_SIDE_STYLE('',(#499));
#346=EDGE_LOOP('',(#500,#501,#502,#503));
#347=AXIS2_PLACEMENT_3D('',#504,#505,#506);
#348=PRE_DEFINED_MARKER('');
#349=COLOUR_RGB('',0.800000011920929,0.800000011920929,0.800000011920929);
#350=DRAUGHTING_PRE_DEFINED_CURVE_FONT('continuous');
#351=COLOUR_RGB('',0.800000011920929,0.800000011920929,0.800000011920929);
#352=AXIS2_PLACEMENT_3D('',#507,#508,#509);
#353=PRE_DEFINED_MARKER('');
#354=COLOUR_RGB('',0.800000011920929,0.800000011920929,0.800000011920929);
#355=DRAUGHTING_PRE_DEFINED_CURVE_FONT('continuous');
#356=COLOUR_RGB('',0.800000011920929,0.800000011920929,0.800000011920929);
#357=CARTESIAN_POINT('',(0.613922804514522,11.5,-5.0));
#358=VECTOR('',#510,1.0);
#359=PRE_DEFINED_MARKER('');
#360=COLOUR_RGB('',0.800000011920929,0.800000011920929,0.800000011920929);
#361=DRAUGHTING_PRE_DEFINED_CURVE_FONT('continuous');
#362=COLOUR_RGB('',0.800000011920929,0.800000011920929,0.800000011920929);
#363=CARTESIAN_POINT('',(0.8,0.0,0.0));
#364=VECTOR('',#511,1.0);
#365=DRAUGHTING_PRE_DEFINED_CURVE_FONT('continuous');
#366=COLOUR_RGB('',0.800000011920929,0.800000011920929,0.800000011920929);
#367=CARTESIAN_POINT('',(12.3,11.5,0.0));
#368=VECTOR('',#512,1.0);
#369=DRAUGHTING_PRE_DEFINED_CURVE_FONT('continuous');
#370=COLOUR_RGB('',0.800000011920929,0.800000011920929,0.800000011920929);
#371=AXIS2_PLACEMENT_3D('',#513,#514,#515);
#372=SURFACE_SIDE_STYLE('',(#516));
#373=EDGE_LOOP('',(#517,#518,#519,#520));
#374=AXIS2_PLACEMENT_3D('',#521,#522,#523);
#375=PRE_DEFINED_MARKER('');
#376=COLOUR_RGB('',0.800000011920929,0.800000011920929,0.800000011920929);
#377=DRAUGHTING_PRE_DEFINED_CURVE_FONT('continuous');
#378=COLOUR_RGB('',0.800000011920929,0.800000011920929,0.800000011920929);
#379=CARTESIAN_POINT('',(0.800000000000001,12.3,0.0));
#380=VECTOR('',#524,1.0);
#381=DRAUGHTING_PRE_DEFINED_CURVE_FONT('continuous');
#382=COLOUR_RGB('',0.800000011920929,0.800000011920929,0.800000011920929);
#383=CARTESIAN_POINT('',(0.0,11.5,0.0));
#384=VECTOR('',#525,1.0);
#385=DRAUGHTING_PRE_DEFINED_CURVE_FONT('continuous');
#386=COLOUR_RGB('',0.800000011920929,0.800000011920929,0.800000011920929);
#387=CARTESIAN_POINT('',(0.8,0.0,0.0));
#388=VECTOR('',#526,1.0);
#389=DRAUGHTING_PRE_DEFINED_CURVE_FONT('continuous');
#390=COLOUR_RGB('',0.800000011920929,0.800000011920929,0.800000011920929);
#391=CARTESIAN_POINT('',(0.0,0.800000000000001,0.0));
#392=VECTOR('',#527,1.0);
#393=SURFACE_SIDE_STYLE('',(#528));
#394=EDGE_LOOP('',(#529,#530,#531,#532));
#395=AXIS2_PLACEMENT_3D('',#533,#534,#535);
#396=SURFACE_SIDE_STYLE('',(#536));
#397=EDGE_LOOP('',(#537,#538,#539,#540));
#398=AXIS2_PLACEMENT_3D('',#541,#542,#543);
#399=DRAUGHTING_PRE_DEFINED_CURVE_FONT('continuous');
#400=COLOUR_RGB('',0.800000011920929,0.800000011920929,0.800000011920929);
#401=AXIS2_PLACEMENT_3D('',#544,#545,#546);
#402=SURFACE_SIDE_STYLE('',(#547));
#403=EDGE_LOOP('',(#548,#549,#550,#551));
#404=AXIS2_PLACEMENT_3D('',#552,#553,#554);
#405=DRAUGHTING_PRE_DEFINED_CURVE_FONT('continuous');
#406=COLOUR_RGB('',0.800000011920929,0.800000011920929,0.800000011920929);
#407=CARTESIAN_POINT('',(11.6860771954855,0.8,-5.0));
#408=VECTOR('',#555,1.0);
#409=PRE_DEFINED_MARKER('');
#410=COLOUR_RGB('',0.800000011920929,0.800000011920929,0.800000011920929);
#411=SURFACE_SIDE_STYLE('',(#556));
#412=DRAUGHTING_PRE_DEFINED_CURVE_FONT('continuous');
#413=COLOUR_RGB('',0.800000011920929,0.800000011920929,0.800000011920929);
#414=AXIS2_PLACEMENT_3D('',#557,#558,#559);
#415=PRE_DEFINED_MARKER('');
#416=COLOUR_RGB('',0.800000011920929,0.800000011920929,0.800000011920929);
#417=DRAUGHTING_PRE_DEFINED_CURVE_FONT('continuous');
#418=COLOUR_RGB('',0.800000011920929,0.800000011920929,0.800000011920929);
#419=AXIS2_PLACEMENT_3D('',#560,#561,#562);
#420=PRE_DEFINED_MARKER('');
#421=COLOUR_RGB('',0.800000011920929,0.800000011920929,0.800000011920929);
#422=PRE_DEFINED_MARKER('');
#423=COLOUR_RGB('',0.800000011920929,0.800000011920929,0.800000011920929);
#424=SURFACE_SIDE_STYLE('',(#563));
#425=EDGE_LOOP('',(#564,#565,#566,#567));
#426=AXIS2_PLACEMENT_3D('',#568,#569,#570);
#427=SURFACE_SIDE_STYLE('',(#571));
#428=EDGE_LOOP('',(#572,#573,#574,#575));
#429=AXIS2_PLACEMENT_3D('',#576,#577,#578);
#430=PRE_DEFINED_MARKER('');
#431=COLOUR_RGB('',0.800000011920929,0.800000011920929,0.800000011920929);
#432=DRAUGHTING_PRE_DEFINED_CURVE_FONT('continuous');
#433=COLOUR_RGB('',0.800000011920929,0.800000011920929,0.800000011920929);
#434=AXIS2_PLACEMENT_3D('',#579,#580,#581);
#435=DRAUGHTING_PRE_DEFINED_CURVE_FONT('continuous');
#436=COLOUR_RGB('',0.800000011920929,0.800000011920929,0.800000011920929);
#437=AXIS2_PLACEMENT_3D('',#582,#583,#584);
#438=DRAUGHTING_PRE_DEFINED_CURVE_FONT('continuous');
#439=COLOUR_RGB('',0.800000011920929,0.800000011920929,0.800000011920929);
#440=AXIS2_PLACEMENT_3D('',#585,#586,#587);
#441=DRAUGHTING_PRE_DEFINED_CURVE_FONT('continuous');
#442=COLOUR_RGB('',0.800000011920929,0.800000011920929,0.800000011920929);
#443=CARTESIAN_POINT('',(0.8,0.613922804514522,-5.0));
#444=VECTOR('',#588,1.0);
#445=DRAUGHTING_PRE_DEFINED_CURVE_FONT('continuous');
#446=COLOUR_RGB('',0.800000011920929,0.800000011920929,0.800000011920929);
#447=CARTESIAN_POINT('',(1.00000341340944E-010,11.5,0.0));
#448=VECTOR('',#589,1.0);
#449=PRE_DEFINED_MARKER('');
#450=COLOUR_RGB('',0.800000011920929,0.800000011920929,0.800000011920929);
#451=PRE_DEFINED_MARKER('');
#452=COLOUR_RGB('',0.800000011920929,0.800000011920929,0.800000011920929);
#453=PRE_DEFINED_MARKER('');
#454=COLOUR_RGB('',0.800000011920929,0.800000011920929,0.800000011920929);
#455=PRE_DEFINED_MARKER('');
#456=COLOUR_RGB('',0.800000011920929,0.800000011920929,0.800000011920929);
#457=DRAUGHTING_PRE_DEFINED_CURVE_FONT('continuous');
#458=COLOUR_RGB('',0.800000011920929,0.800000011920929,0.800000011920929);
#459=CARTESIAN_POINT('',(12.3,0.8,0.0));
#460=VECTOR('',#590,1.0);
#462=DIRECTION('',(0.0,-0.121869343385591,-0.992546151643723));
#463=SURFACE_STYLE_FILL_AREA(#591);
#464=ORIENTED_EDGE('',*,*,#141,.F.);
#465=ORIENTED_EDGE('',*,*,#163,.F.);
#466=ORIENTED_EDGE('',*,*,#113,.F.);
#467=ORIENTED_EDGE('',*,*,#105,.F.);
#468=ORIENTED_EDGE('',*,*,#131,.F.);
#469=ORIENTED_EDGE('',*,*,#89,.F.);
#470=ORIENTED_EDGE('',*,*,#157,.F.);
#471=ORIENTED_EDGE('',*,*,#135,.F.);
#472=CARTESIAN_POINT('',(6.15,6.15,-5.0));
#473=DIRECTION('',(0.0,0.0,1.0));
#474=DIRECTION('',(1.0,0.0,0.0));
#475=DIRECTION('',(-0.121869343385591,0.0,-0.992546151643723));
#476=SURFACE_STYLE_FILL_AREA(#592);
#477=ORIENTED_EDGE('',*,*,#163,.T.);
#478=ORIENTED_EDGE('',*,*,#87,.F.);
#479=ORIENTED_EDGE('',*,*,#123,.F.);
#480=ORIENTED_EDGE('',*,*,#109,.T.);
#481=CARTESIAN_POINT('',(0.8,0.0,0.0));
#482=DIRECTION('',(-0.0,-0.992546151641322,-0.121869343405147));
#483=DIRECTION('',(-1.0,0.0,0.0));
#484=DIRECTION('',(-1.0,0.0,0.0));
#485=DIRECTION('',(-1.52336761150284E-011,0.121869343424703,-0.992546151638921));
#486=DIRECTION('',(-1.0,0.0,0.0));
#487=SURFACE_STYLE_FILL_AREA(#593);
#488=ORIENTED_EDGE('',*,*,#123,.T.);
#489=ORIENTED_EDGE('',*,*,#145,.T.);
#490=ORIENTED_EDGE('',*,*,#175,.T.);
#491=ORIENTED_EDGE('',*,*,#101,.T.);
#492=ORIENTED_EDGE('',*,*,#85,.T.);
#493=ORIENTED_EDGE('',*,*,#159,.T.);
#494=ORIENTED_EDGE('',*,*,#121,.T.);
#495=ORIENTED_EDGE('',*,*,#161,.T.);
#496=CARTESIAN_POINT('',(6.15,6.15,0.0));
#497=DIRECTION('',(0.0,0.0,1.0));
#498=DIRECTION('',(1.0,0.0,0.0));
#499=SURFACE_STYLE_FILL_AREA(#594);
#500=ORIENTED_EDGE('',*,*,#131,.T.);
#501=ORIENTED_EDGE('',*,*,#165,.F.);
#502=ORIENTED_EDGE('',*,*,#159,.F.);
#503=ORIENTED_EDGE('',*,*,#119,.T.);
#504=CARTESIAN_POINT('',(0.800000000100005,11.4999999999,0.0));
#505=DIRECTION('',(-0.0,-0.0,1.0));
#506=DIRECTION('',(-1.25005977791303E-010,1.0,0.0));
#507=CARTESIAN_POINT('',(11.4999999999,11.4999999999,0.0));
#508=DIRECTION('',(0.0,-0.0,1.0));
#509=DIRECTION('',(1.0,1.25004451234644E-010,0.0));
#510=DIRECTION('',(0.0,-1.0,0.0));
#511=DIRECTION('',(0.0,0.121869343405147,-0.992546151641322));
#512=DIRECTION('',(-0.121869343424703,-1.52343813614864E-011,-0.992546151638921));
#513=CARTESIAN_POINT('',(0.8000000001,0.8000000001,-5.0));
#514=DIRECTION('',(0.0,0.0,1.0));
#515=DIRECTION('',(-1.0,-1.24999455231034E-010,0.0));
#516=SURFACE_STYLE_FILL_AREA(#595);
#517=ORIENTED_EDGE('',*,*,#157,.T.);
#518=ORIENTED_EDGE('',*,*,#75,.F.);
#519=ORIENTED_EDGE('',*,*,#101,.F.);
#520=ORIENTED_EDGE('',*,*,#111,.T.);
#521=CARTESIAN_POINT('',(11.4999999999,11.4999999999,0.0));
#522=DIRECTION('',(-0.0,-0.0,1.0));
#523=DIRECTION('',(1.0,1.25004451234644E-010,0.0));
#524=DIRECTION('',(1.52342711667273E-011,-0.121869343424703,-0.992546151638921));
#525=DIRECTION('',(0.0,-1.0,0.0));
#526=DIRECTION('',(1.0,0.0,0.0));
#527=DIRECTION('',(0.121869343424703,1.52335218423657E-011,-0.992546151638921));
#528=SURFACE_STYLE_FILL_AREA(#596);
#529=ORIENTED_EDGE('',*,*,#89,.T.);
#530=ORIENTED_EDGE('',*,*,#119,.F.);
#531=ORIENTED_EDGE('',*,*,#85,.F.);
#532=ORIENTED_EDGE('',*,*,#75,.T.);
#533=CARTESIAN_POINT('',(11.5,12.2999999999,0.0));
#534=DIRECTION('',(0.0,0.992546151643723,-0.121869343385591));
#535=DIRECTION('',(1.0,-0.0,0.0));
#536=SURFACE_STYLE_FILL_AREA(#597);
#537=ORIENTED_EDGE('',*,*,#113,.T.);
#538=ORIENTED_EDGE('',*,*,#109,.F.);
#539=ORIENTED_EDGE('',*,*,#161,.F.);
#540=ORIENTED_EDGE('',*,*,#125,.T.);
#541=CARTESIAN_POINT('',(0.8000000001,0.8000000001,0.0));
#542=DIRECTION('',(0.0,-0.0,1.0));
#543=DIRECTION('',(-1.0,-1.24999455231034E-010,0.0));
#544=CARTESIAN_POINT('',(0.800000000100005,11.4999999999,-5.0));
#545=DIRECTION('',(0.0,0.0,1.0));
#546=DIRECTION('',(-1.25005977791303E-010,1.0,0.0));
#547=SURFACE_STYLE_FILL_AREA(#598);
#548=ORIENTED_EDGE('',*,*,#105,.T.);
#549=ORIENTED_EDGE('',*,*,#125,.F.);
#550=ORIENTED_EDGE('',*,*,#121,.F.);
#551=ORIENTED_EDGE('',*,*,#165,.T.);
#552=CARTESIAN_POINT('',(1.00000341340944E-010,11.5,0.0));
#553=DIRECTION('',(-0.992546151643723,0.0,-0.121869343385591));
#554=DIRECTION('',(0.0,1.0,0.0));
#555=DIRECTION('',(0.0,1.0,0.0));
#556=SURFACE_STYLE_FILL_AREA(#599);
#557=CARTESIAN_POINT('',(11.4999999999,0.800000000100001,-5.0));
#558=DIRECTION('',(0.0,0.0,1.0));
#559=DIRECTION('',(1.25000010342546E-010,-1.0,0.0));
#560=CARTESIAN_POINT('',(11.4999999999,0.800000000100001,0.0));
#561=DIRECTION('',(0.0,0.0,1.0));
#562=DIRECTION('',(1.25000010342546E-010,-1.0,0.0));
#563=SURFACE_STYLE_FILL_AREA(#600);
#564=ORIENTED_EDGE('',*,*,#141,.T.);
#565=ORIENTED_EDGE('',*,*,#79,.F.);
#566=ORIENTED_EDGE('',*,*,#145,.F.);
#567=ORIENTED_EDGE('',*,*,#87,.T.);
#568=CARTESIAN_POINT('',(11.4999999999,0.800000000100001,0.0));
#569=DIRECTION('',(-0.0,-0.0,1.0));
#570=DIRECTION('',(1.25000010342546E-010,-1.0,0.0));
#571=SURFACE_STYLE_FILL_AREA(#601);
#572=ORIENTED_EDGE('',*,*,#135,.T.);
#573=ORIENTED_EDGE('',*,*,#111,.F.);
#574=ORIENTED_EDGE('',*,*,#175,.F.);
#575=ORIENTED_EDGE('',*,*,#79,.T.);
#576=CARTESIAN_POINT('',(12.2999999999,0.8,0.0));
#577=DIRECTION('',(0.992546151643723,-0.0,-0.121869343385591));
#578=DIRECTION('',(-0.0,-1.0,0.0));
#579=CARTESIAN_POINT('',(11.4999999999,11.4999999999,-5.0));
#580=DIRECTION('',(0.0,-0.0,1.0));
#581=DIRECTION('',(1.0,1.25004451234644E-010,0.0));
#582=CARTESIAN_POINT('',(0.800000000100005,11.4999999999,0.0));
#583=DIRECTION('',(0.0,0.0,1.0));
#584=DIRECTION('',(-1.25005977791303E-010,1.0,0.0));
#585=CARTESIAN_POINT('',(0.8000000001,0.8000000001,0.0));
#586=DIRECTION('',(0.0,0.0,1.0));
#587=DIRECTION('',(-1.0,-1.24999455231034E-010,0.0));
#588=DIRECTION('',(1.0,0.0,0.0));
#589=DIRECTION('',(0.121869343385591,0.0,-0.992546151643723));
#590=DIRECTION('',(0.0,1.0,0.0));
#591=FILL_AREA_STYLE('',(#602));
#592=FILL_AREA_STYLE('',(#603));
#593=FILL_AREA_STYLE('',(#604));
#594=FILL_AREA_STYLE('',(#605));
#595=FILL_AREA_STYLE('',(#606));
#596=FILL_AREA_STYLE('',(#607));
#597=FILL_AREA_STYLE('',(#608));
#598=FILL_AREA_STYLE('',(#609));
#599=FILL_AREA_STYLE('',(#610));
#600=FILL_AREA_STYLE('',(#611));
#601=FILL_AREA_STYLE('',(#612));
#602=FILL_AREA_STYLE_COLOUR('',#613);
#603=FILL_AREA_STYLE_COLOUR('',#614);
#604=FILL_AREA_STYLE_COLOUR('',#615);
#605=FILL_AREA_STYLE_COLOUR('',#616);
#606=FILL_AREA_STYLE_COLOUR('',#617);
#607=FILL_AREA_STYLE_COLOUR('',#618);
#608=FILL_AREA_STYLE_COLOUR('',#619);
#609=FILL_AREA_STYLE_COLOUR('',#620);
#610=FILL_AREA_STYLE_COLOUR('',#621);
#611=FILL_AREA_STYLE_COLOUR('',#622);
#612=FILL_AREA_STYLE_COLOUR('',#623);
#613=COLOUR_RGB('',0.800000011920929,0.800000011920929,0.800000011920929);
#614=COLOUR_RGB('',0.800000011920929,0.800000011920929,0.800000011920929);
#615=COLOUR_RGB('',0.800000011920929,0.800000011920929,0.800000011920929);
#616=COLOUR_RGB('',0.800000011920929,0.800000011920929,0.800000011920929);
#617=COLOUR_RGB('',0.800000011920929,0.800000011920929,0.800000011920929);
#618=COLOUR_RGB('',0.800000011920929,0.800000011920929,0.800000011920929);
#619=COLOUR_RGB('',0.800000011920929,0.800000011920929,0.800000011920929);
#620=COLOUR_RGB('',0.800000011920929,0.800000011920929,0.800000011920929);
#621=COLOUR_RGB('',0.800000011920929,0.800000011920929,0.800000011920929);
#622=COLOUR_RGB('',0.800000011920929,0.800000011920929,0.800000011920929);
#623=COLOUR_RGB('',0.800000011920929,0.800000011920929,0.800000011920929);
#624=AXIS2_PLACEMENT_3D('PCS',#625,#626,#627);
#625=CARTESIAN_POINT('',(0.0,0.0,0.0));
#626=DIRECTION('',(0.0,0.0,1.0));
#627=DIRECTION('',(1.0,0.0,0.0));
#628=AXIS2_PLACEMENT_3D('MCS',#629,#630,#631);
#629=CARTESIAN_POINT('',(6.15,6.15,0.0));
#630=DIRECTION('',(0.0,0.0,1.0));
#631=DIRECTION('',(1.0,0.0,0.0));
#632=CONSTRUCTIVE_GEOMETRY_REPRESENTATION_RELATIONSHIP('coordinate systems',$,#65,#633);
#633=CONSTRUCTIVE_GEOMETRY_REPRESENTATION('coordinate systems',(#624,#628),#6);
ENDSEC;
END-ISO-10303-21;
