ISO-10303-21;
HEADER;
FILE_DESCRIPTION(('no description'),'unknown implementation level');
FILE_NAME('solidAA__d_Q0QO7p7IA41SdYMjwvCgY_1.STP','  ',('CIMSOURCE GmbH'),('CADClick - KiM GmbH - www.kimweb.de'),'unknown preprocess','ACIS','unknown authorization');
FILE_SCHEMA(('automotive_design'));
ENDSEC;
DATA;
#1=MECHANICAL_DESIGN_GEOMETRIC_PRESENTATION_REPRESENTATION(' ',(#10,#11,#12,#13,#14,#15,#16,#17,#18,#19,#20,#21,#22,#23,#24,#25,#26,#27,#28,#29,#30,#31,#32,#33,#34,#35,#36,#37,#38,#39,#40,#41,#42,#43,#44,#45,#46,#47,#48,#49,#50,#51,#52,#53,#54,#55,#56,#57,#58,#59,#60),#6);
#2=PRODUCT_DEFINITION_CONTEXT('',#61,'design');
#3=APPLICATION_PROTOCOL_DEFINITION('INTERNATIONAL STANDARD','automotive_design',1994,#61);
#4=PRODUCT_CATEGORY_RELATIONSHIP('NONE','NONE',#62,#63);
#5=SHAPE_DEFINITION_REPRESENTATION(#64,#65);
#6= (GEOMETRIC_REPRESENTATION_CONTEXT(3)GLOBAL_UNCERTAINTY_ASSIGNED_CONTEXT((#68))GLOBAL_UNIT_ASSIGNED_CONTEXT((#70,#71,#72))REPRESENTATION_CONTEXT('NONE','WORKSPACE'));
#10=STYLED_ITEM('',(#74),#75);
#11=STYLED_ITEM('',(#76),#77);
#12=STYLED_ITEM('',(#78),#79);
#13=STYLED_ITEM('',(#80),#81);
#14=STYLED_ITEM('',(#82),#83);
#15=STYLED_ITEM('',(#84),#85);
#16=STYLED_ITEM('',(#86),#87);
#17=STYLED_ITEM('',(#88),#89);
#18=STYLED_ITEM('',(#90),#91);
#19=STYLED_ITEM('',(#92),#93);
#20=STYLED_ITEM('',(#94),#95);
#21=STYLED_ITEM('',(#96),#97);
#22=STYLED_ITEM('',(#98),#99);
#23=STYLED_ITEM('',(#100),#101);
#24=STYLED_ITEM('',(#102),#103);
#25=STYLED_ITEM('',(#104),#105);
#26=STYLED_ITEM('',(#106),#107);
#27=STYLED_ITEM('',(#108),#109);
#28=STYLED_ITEM('',(#110),#111);
#29=STYLED_ITEM('',(#112),#113);
#30=STYLED_ITEM('',(#114),#115);
#31=STYLED_ITEM('',(#116),#117);
#32=STYLED_ITEM('',(#118),#119);
#33=STYLED_ITEM('',(#120),#121);
#34=STYLED_ITEM('',(#122),#123);
#35=STYLED_ITEM('',(#124),#125);
#36=STYLED_ITEM('',(#126),#127);
#37=STYLED_ITEM('',(#128),#129);
#38=STYLED_ITEM('',(#130),#131);
#39=STYLED_ITEM('',(#132),#133);
#40=STYLED_ITEM('',(#134),#135);
#41=STYLED_ITEM('',(#136),#137);
#42=STYLED_ITEM('',(#138),#139);
#43=STYLED_ITEM('',(#140),#141);
#44=STYLED_ITEM('',(#142),#143);
#45=STYLED_ITEM('',(#144),#145);
#46=STYLED_ITEM('',(#146),#147);
#47=STYLED_ITEM('',(#148),#149);
#48=STYLED_ITEM('',(#150),#151);
#49=STYLED_ITEM('',(#152),#153);
#50=STYLED_ITEM('',(#154),#155);
#51=STYLED_ITEM('',(#156),#157);
#52=STYLED_ITEM('',(#158),#159);
#53=STYLED_ITEM('',(#160),#161);
#54=STYLED_ITEM('',(#162),#163);
#55=STYLED_ITEM('',(#164),#165);
#56=STYLED_ITEM('',(#166),#167);
#57=STYLED_ITEM('',(#168),#169);
#58=STYLED_ITEM('',(#170),#171);
#59=STYLED_ITEM('',(#172),#173);
#60=STYLED_ITEM('',(#174),#175);
#61=APPLICATION_CONTEXT(' ');
#62=PRODUCT_CATEGORY('part','NONE');
#63=PRODUCT_RELATED_PRODUCT_CATEGORY('detail',' ',(#176));
#64=PRODUCT_DEFINITION_SHAPE('NONE','NONE',#177);
#65=ADVANCED_BREP_SHAPE_REPRESENTATION('1',(#121,#178),#6);
#68=UNCERTAINTY_MEASURE_WITH_UNIT(LENGTH_MEASURE(1.0E-006),#70,'','');
#70= (CONVERSION_BASED_UNIT('MILLIMETRE',#181)LENGTH_UNIT()NAMED_UNIT(#184));
#71= (NAMED_UNIT(#186)PLANE_ANGLE_UNIT()SI_UNIT($,.RADIAN.));
#72= (NAMED_UNIT(#186)SOLID_ANGLE_UNIT()SI_UNIT($,.STERADIAN.));
#74=PRESENTATION_STYLE_ASSIGNMENT((#192));
#75=EDGE_CURVE('',#131,#141,#193,.T.);
#76=PRESENTATION_STYLE_ASSIGNMENT((#194));
#77=VERTEX_POINT('',#195);
#78=PRESENTATION_STYLE_ASSIGNMENT((#196));
#79=EDGE_CURVE('',#141,#77,#197,.T.);
#80=PRESENTATION_STYLE_ASSIGNMENT((#198));
#81=EDGE_CURVE('',#155,#83,#199,.T.);
#82=PRESENTATION_STYLE_ASSIGNMENT((#200));
#83=VERTEX_POINT('',#201);
#84=PRESENTATION_STYLE_ASSIGNMENT((#202));
#85=EDGE_CURVE('',#155,#161,#203,.T.);
#86=PRESENTATION_STYLE_ASSIGNMENT((#204));
#87=EDGE_CURVE('',#139,#143,#205,.T.);
#88=PRESENTATION_STYLE_ASSIGNMENT((#206));
#89=EDGE_CURVE('',#113,#83,#207,.T.);
#90=PRESENTATION_STYLE_ASSIGNMENT((#208));
#91=EDGE_CURVE('',#169,#105,#209,.T.);
#92=PRESENTATION_STYLE_ASSIGNMENT((#210));
#93=ADVANCED_FACE('',(#211),#212,.T.);
#94=PRESENTATION_STYLE_ASSIGNMENT((#213));
#95=EDGE_CURVE('',#165,#131,#214,.T.);
#96=PRESENTATION_STYLE_ASSIGNMENT((#215));
#97=EDGE_CURVE('',#167,#113,#216,.T.);
#98=PRESENTATION_STYLE_ASSIGNMENT((#217));
#99=ADVANCED_FACE('',(#218),#219,.T.);
#100=PRESENTATION_STYLE_ASSIGNMENT((#220));
#101=VERTEX_POINT('',#221);
#102=PRESENTATION_STYLE_ASSIGNMENT((#222));
#103=EDGE_CURVE('',#83,#115,#223,.T.);
#104=PRESENTATION_STYLE_ASSIGNMENT((#224));
#105=VERTEX_POINT('',#225);
#106=PRESENTATION_STYLE_ASSIGNMENT((#226));
#107=ADVANCED_FACE('',(#227),#228,.F.);
#108=PRESENTATION_STYLE_ASSIGNMENT((#229));
#109=ADVANCED_FACE('',(#230),#231,.T.);
#110=PRESENTATION_STYLE_ASSIGNMENT((#232));
#111=EDGE_CURVE('',#131,#151,#233,.T.);
#112=PRESENTATION_STYLE_ASSIGNMENT((#234));
#113=VERTEX_POINT('',#235);
#114=PRESENTATION_STYLE_ASSIGNMENT((#236));
#115=VERTEX_POINT('',#237);
#116=PRESENTATION_STYLE_ASSIGNMENT((#238));
#117=EDGE_CURVE('',#101,#151,#239,.T.);
#118=PRESENTATION_STYLE_ASSIGNMENT((#240));
#119=EDGE_CURVE('',#143,#105,#241,.T.);
#120=PRESENTATION_STYLE_ASSIGNMENT((#242));
#121=MANIFOLD_SOLID_BREP('1',#243);
#122=PRESENTATION_STYLE_ASSIGNMENT((#244));
#123=ADVANCED_FACE('',(#245),#246,.T.);
#124=PRESENTATION_STYLE_ASSIGNMENT((#247));
#125=EDGE_CURVE('',#161,#139,#248,.T.);
#126=PRESENTATION_STYLE_ASSIGNMENT((#249));
#127=EDGE_CURVE('',#77,#113,#250,.T.);
#128=PRESENTATION_STYLE_ASSIGNMENT((#251));
#129=EDGE_CURVE('',#161,#115,#252,.T.);
#130=PRESENTATION_STYLE_ASSIGNMENT((#253));
#131=VERTEX_POINT('',#254);
#132=PRESENTATION_STYLE_ASSIGNMENT((#255));
#133=EDGE_CURVE('',#115,#143,#256,.T.);
#134=PRESENTATION_STYLE_ASSIGNMENT((#257));
#135=ADVANCED_FACE('',(#258),#259,.T.);
#136=PRESENTATION_STYLE_ASSIGNMENT((#260));
#137=EDGE_CURVE('',#77,#155,#261,.T.);
#138=PRESENTATION_STYLE_ASSIGNMENT((#262));
#139=VERTEX_POINT('',#263);
#140=PRESENTATION_STYLE_ASSIGNMENT((#264));
#141=VERTEX_POINT('',#265);
#142=PRESENTATION_STYLE_ASSIGNMENT((#266));
#143=VERTEX_POINT('',#267);
#144=PRESENTATION_STYLE_ASSIGNMENT((#268));
#145=EDGE_CURVE('',#139,#169,#269,.T.);
#146=PRESENTATION_STYLE_ASSIGNMENT((#270));
#147=EDGE_CURVE('',#169,#165,#271,.T.);
#148=PRESENTATION_STYLE_ASSIGNMENT((#272));
#149=ADVANCED_FACE('',(#273),#274,.T.);
#150=PRESENTATION_STYLE_ASSIGNMENT((#275));
#151=VERTEX_POINT('',#276);
#152=PRESENTATION_STYLE_ASSIGNMENT((#277));
#153=EDGE_CURVE('',#151,#167,#278,.T.);
#154=PRESENTATION_STYLE_ASSIGNMENT((#279));
#155=VERTEX_POINT('',#280);
#156=PRESENTATION_STYLE_ASSIGNMENT((#281));
#157=ADVANCED_FACE('',(#282),#283,.T.);
#158=PRESENTATION_STYLE_ASSIGNMENT((#284));
#159=EDGE_CURVE('',#165,#101,#285,.T.);
#160=PRESENTATION_STYLE_ASSIGNMENT((#286));
#161=VERTEX_POINT('',#287);
#162=PRESENTATION_STYLE_ASSIGNMENT((#288));
#163=EDGE_CURVE('',#105,#101,#289,.T.);
#164=PRESENTATION_STYLE_ASSIGNMENT((#290));
#165=VERTEX_POINT('',#291);
#166=PRESENTATION_STYLE_ASSIGNMENT((#292));
#167=VERTEX_POINT('',#293);
#168=PRESENTATION_STYLE_ASSIGNMENT((#294));
#169=VERTEX_POINT('',#295);
#170=PRESENTATION_STYLE_ASSIGNMENT((#296));
#171=ADVANCED_FACE('',(#297),#298,.T.);
#172=PRESENTATION_STYLE_ASSIGNMENT((#299));
#173=EDGE_CURVE('',#141,#167,#300,.T.);
#174=PRESENTATION_STYLE_ASSIGNMENT((#301));
#175=ADVANCED_FACE('',(#302),#303,.T.);
#176=PRODUCT('1','1','PART-1-DESC',(#304));
#177=PRODUCT_DEFINITION('NONE','NONE',#305,#2);
#178=AXIS2_PLACEMENT_3D('',#306,#307,#308);
#181=LENGTH_MEASURE_WITH_UNIT(LENGTH_MEASURE(1.0),#309);
#184=DIMENSIONAL_EXPONENTS(1.0,0.0,0.0,0.0,0.0,0.0,0.0);
#186=DIMENSIONAL_EXPONENTS(0.0,0.0,0.0,0.0,0.0,0.0,0.0);
#192=CURVE_STYLE('',#310,POSITIVE_LENGTH_MEASURE(1.0E-006),#311);
#193=LINE('',#312,#313);
#194=POINT_STYLE(' ',#314,POSITIVE_LENGTH_MEASURE(1.0E-006),#315);
#195=CARTESIAN_POINT('',(4.4,4.7999999999,0.0));
#196=CURVE_STYLE('',#316,POSITIVE_LENGTH_MEASURE(1.0E-006),#317);
#197=CIRCLE('',#318,0.400000000000001);
#198=CURVE_STYLE('',#319,POSITIVE_LENGTH_MEASURE(1.0E-006),#320);
#199=LINE('',#321,#322);
#200=POINT_STYLE(' ',#323,POSITIVE_LENGTH_MEASURE(1.0E-006),#324);
#201=CARTESIAN_POINT('',(0.400000000067532,4.52987396591361,-2.2));
#202=CURVE_STYLE('',#325,POSITIVE_LENGTH_MEASURE(1.0E-006),#326);
#203=CIRCLE('',#327,0.400000000000001);
#204=CURVE_STYLE('',#328,POSITIVE_LENGTH_MEASURE(1.0E-006),#329);
#205=LINE('',#330,#331);
#206=CURVE_STYLE('',#332,POSITIVE_LENGTH_MEASURE(1.0E-006),#333);
#207=LINE('',#334,#335);
#208=CURVE_STYLE('',#336,POSITIVE_LENGTH_MEASURE(1.0E-006),#337);
#209=LINE('',#338,#339);
#210=SURFACE_STYLE_USAGE(.BOTH.,#340);
#211=FACE_OUTER_BOUND('',#341,.T.);
#212=CONICAL_SURFACE('',#342,0.4,0.122173047639603);
#213=CURVE_STYLE('',#343,POSITIVE_LENGTH_MEASURE(1.0E-006),#344);
#214=CIRCLE('',#345,0.4);
#215=CURVE_STYLE('',#346,POSITIVE_LENGTH_MEASURE(1.0E-006),#347);
#216=CIRCLE('',#348,0.129873966013612);
#217=SURFACE_STYLE_USAGE(.BOTH.,#349);
#218=FACE_OUTER_BOUND('',#350,.T.);
#219=PLANE('',#351);
#220=POINT_STYLE(' ',#352,POSITIVE_LENGTH_MEASURE(1.0E-006),#353);
#221=CARTESIAN_POINT('',(4.39999999993247,0.270126034086389,-2.2));
#222=CURVE_STYLE('',#354,POSITIVE_LENGTH_MEASURE(1.0E-006),#355);
#223=CIRCLE('',#356,0.129873966013612);
#224=POINT_STYLE(' ',#357,POSITIVE_LENGTH_MEASURE(1.0E-006),#358);
#225=CARTESIAN_POINT('',(0.4,0.27012603398639,-2.2));
#226=SURFACE_STYLE_USAGE(.BOTH.,#359);
#227=FACE_OUTER_BOUND('',#360,.T.);
#228=PLANE('',#361);
#229=SURFACE_STYLE_USAGE(.BOTH.,#362);
#230=FACE_OUTER_BOUND('',#363,.T.);
#231=CONICAL_SURFACE('',#364,0.4,0.122173047639603);
#232=CURVE_STYLE('',#365,POSITIVE_LENGTH_MEASURE(1.0E-006),#366);
#233=LINE('',#367,#368);
#234=POINT_STYLE(' ',#369,POSITIVE_LENGTH_MEASURE(1.0E-006),#370);
#235=CARTESIAN_POINT('',(4.4,4.52987396601361,-2.2));
#236=POINT_STYLE(' ',#371,POSITIVE_LENGTH_MEASURE(1.0E-006),#372);
#237=CARTESIAN_POINT('',(0.27012603398639,4.4,-2.2));
#238=CURVE_STYLE('',#373,POSITIVE_LENGTH_MEASURE(1.0E-006),#374);
#239=CIRCLE('',#375,0.12987396601361);
#240=CURVE_STYLE('',#376,POSITIVE_LENGTH_MEASURE(1.0E-006),#377);
#241=CIRCLE('',#378,0.129873966013611);
#242=SURFACE_STYLE_USAGE(.BOTH.,#379);
#243=CLOSED_SHELL('',(#109,#99,#149,#171,#135,#157,#93,#175,#107,#123));
#244=SURFACE_STYLE_USAGE(.BOTH.,#380);
#245=FACE_OUTER_BOUND('',#381,.T.);
#246=PLANE('',#382);
#247=CURVE_STYLE('',#383,POSITIVE_LENGTH_MEASURE(1.0E-006),#384);
#248=LINE('',#385,#386);
#249=CURVE_STYLE('',#387,POSITIVE_LENGTH_MEASURE(1.0E-006),#388);
#250=LINE('',#389,#390);
#251=CURVE_STYLE('',#391,POSITIVE_LENGTH_MEASURE(1.0E-006),#392);
#252=LINE('',#393,#394);
#253=POINT_STYLE(' ',#395,POSITIVE_LENGTH_MEASURE(1.0E-006),#396);
#254=CARTESIAN_POINT('',(4.7999999999,0.4,0.0));
#255=CURVE_STYLE('',#397,POSITIVE_LENGTH_MEASURE(1.0E-006),#398);
#256=LINE('',#399,#400);
#257=SURFACE_STYLE_USAGE(.BOTH.,#401);
#258=FACE_OUTER_BOUND('',#402,.T.);
#259=CONICAL_SURFACE('',#403,0.400000000000001,0.122173047639603);
#260=CURVE_STYLE('',#404,POSITIVE_LENGTH_MEASURE(1.0E-006),#405);
#261=LINE('',#406,#407);
#262=POINT_STYLE(' ',#408,POSITIVE_LENGTH_MEASURE(1.0E-006),#409);
#263=CARTESIAN_POINT('',(0.0,0.4,0.0));
#264=POINT_STYLE(' ',#410,POSITIVE_LENGTH_MEASURE(1.0E-006),#411);
#265=CARTESIAN_POINT('',(4.8,4.4,0.0));
#266=POINT_STYLE(' ',#412,POSITIVE_LENGTH_MEASURE(1.0E-006),#413);
#267=CARTESIAN_POINT('',(0.270126034086389,0.400000000067531,-2.2));
#268=CURVE_STYLE('',#414,POSITIVE_LENGTH_MEASURE(1.0E-006),#415);
#269=CIRCLE('',#416,0.4);
#270=CURVE_STYLE('',#417,POSITIVE_LENGTH_MEASURE(1.0E-006),#418);
#271=LINE('',#419,#420);
#272=SURFACE_STYLE_USAGE(.BOTH.,#421);
#273=FACE_OUTER_BOUND('',#422,.T.);
#274=CONICAL_SURFACE('',#423,0.400000000000001,0.122173047639603);
#275=POINT_STYLE(' ',#424,POSITIVE_LENGTH_MEASURE(1.0E-006),#425);
#276=CARTESIAN_POINT('',(4.52987396601361,0.4,-2.2));
#277=CURVE_STYLE('',#426,POSITIVE_LENGTH_MEASURE(1.0E-006),#427);
#278=LINE('',#428,#429);
#279=POINT_STYLE(' ',#430,POSITIVE_LENGTH_MEASURE(1.0E-006),#431);
#280=CARTESIAN_POINT('',(0.4,4.8,0.0));
#281=SURFACE_STYLE_USAGE(.BOTH.,#432);
#282=FACE_OUTER_BOUND('',#433,.T.);
#283=PLANE('',#434);
#284=CURVE_STYLE('',#435,POSITIVE_LENGTH_MEASURE(1.0E-006),#436);
#285=LINE('',#437,#438);
#286=POINT_STYLE(' ',#439,POSITIVE_LENGTH_MEASURE(1.0E-006),#440);
#287=CARTESIAN_POINT('',(9.99991200956174E-011,4.4,0.0));
#288=CURVE_STYLE('',#441,POSITIVE_LENGTH_MEASURE(1.0E-006),#442);
#289=LINE('',#443,#444);
#290=POINT_STYLE(' ',#445,POSITIVE_LENGTH_MEASURE(1.0E-006),#446);
#291=CARTESIAN_POINT('',(4.4,0.0,0.0));
#292=POINT_STYLE(' ',#447,POSITIVE_LENGTH_MEASURE(1.0E-006),#448);
#293=CARTESIAN_POINT('',(4.52987396591361,4.39999999993247,-2.2));
#294=POINT_STYLE(' ',#449,POSITIVE_LENGTH_MEASURE(1.0E-006),#450);
#295=CARTESIAN_POINT('',(0.4,0.0,0.0));
#296=SURFACE_STYLE_USAGE(.BOTH.,#451);
#297=FACE_OUTER_BOUND('',#452,.T.);
#298=PLANE('',#453);
#299=CURVE_STYLE('',#454,POSITIVE_LENGTH_MEASURE(1.0E-006),#455);
#300=LINE('',#456,#457);
#301=SURFACE_STYLE_USAGE(.BOTH.,#458);
#302=FACE_OUTER_BOUND('',#459,.T.);
#303=PLANE('',#460);
#304=PRODUCT_CONTEXT('',#61,'mechanical');
#305=PRODUCT_DEFINITION_FORMATION_WITH_SPECIFIED_SOURCE(' ','NONE',#176,.NOT_KNOWN.);
#306=CARTESIAN_POINT('',(0.0,0.0,0.0));
#307=DIRECTION('',(0.0,0.0,1.0));
#308=DIRECTION('',(1.0,0.0,0.0));
#309= (NAMED_UNIT(#184)LENGTH_UNIT()SI_UNIT(.MILLI.,.METRE.));
#310=DRAUGHTING_PRE_DEFINED_CURVE_FONT('continuous');
#311=COLOUR_RGB('',0.800000011920929,0.800000011920929,0.800000011920929);
#312=CARTESIAN_POINT('',(4.8,0.4,0.0));
#313=VECTOR('',#462,1.0);
#314=PRE_DEFINED_MARKER('');
#315=COLOUR_RGB('',0.800000011920929,0.800000011920929,0.800000011920929);
#316=DRAUGHTING_PRE_DEFINED_CURVE_FONT('continuous');
#317=COLOUR_RGB('',0.800000011920929,0.800000011920929,0.800000011920929);
#318=AXIS2_PLACEMENT_3D('',#463,#464,#465);
#319=DRAUGHTING_PRE_DEFINED_CURVE_FONT('continuous');
#320=COLOUR_RGB('',0.800000011920929,0.800000011920929,0.800000011920929);
#321=CARTESIAN_POINT('',(0.4,4.8,0.0));
#322=VECTOR('',#466,1.0);
#323=PRE_DEFINED_MARKER('');
#324=COLOUR_RGB('',0.800000011920929,0.800000011920929,0.800000011920929);
#325=DRAUGHTING_PRE_DEFINED_CURVE_FONT('continuous');
#326=COLOUR_RGB('',0.800000011920929,0.800000011920929,0.800000011920929);
#327=AXIS2_PLACEMENT_3D('',#467,#468,#469);
#328=DRAUGHTING_PRE_DEFINED_CURVE_FONT('continuous');
#329=COLOUR_RGB('',0.800000011920929,0.800000011920929,0.800000011920929);
#330=CARTESIAN_POINT('',(0.0,0.4,0.0));
#331=VECTOR('',#470,1.0);
#332=DRAUGHTING_PRE_DEFINED_CURVE_FONT('continuous');
#333=COLOUR_RGB('',0.800000011920929,0.800000011920929,0.800000011920929);
#334=CARTESIAN_POINT('',(4.4,4.52987396601361,-2.2));
#335=VECTOR('',#471,1.0);
#336=DRAUGHTING_PRE_DEFINED_CURVE_FONT('continuous');
#337=COLOUR_RGB('',0.800000011920929,0.800000011920929,0.800000011920929);
#338=CARTESIAN_POINT('',(0.4,0.0,0.0));
#339=VECTOR('',#472,1.0);
#340=SURFACE_SIDE_STYLE('',(#473));
#341=EDGE_LOOP('',(#474,#475,#476,#477));
#342=AXIS2_PLACEMENT_3D('',#478,#479,#480);
#343=DRAUGHTING_PRE_DEFINED_CURVE_FONT('continuous');
#344=COLOUR_RGB('',0.800000011920929,0.800000011920929,0.800000011920929);
#345=AXIS2_PLACEMENT_3D('',#481,#482,#483);
#346=DRAUGHTING_PRE_DEFINED_CURVE_FONT('continuous');
#347=COLOUR_RGB('',0.800000011920929,0.800000011920929,0.800000011920929);
#348=AXIS2_PLACEMENT_3D('',#484,#485,#486);
#349=SURFACE_SIDE_STYLE('',(#487));
#350=EDGE_LOOP('',(#488,#489,#490,#491));
#351=AXIS2_PLACEMENT_3D('',#492,#493,#494);
#352=PRE_DEFINED_MARKER('');
#353=COLOUR_RGB('',0.800000011920929,0.800000011920929,0.800000011920929);
#354=DRAUGHTING_PRE_DEFINED_CURVE_FONT('continuous');
#355=COLOUR_RGB('',0.800000011920929,0.800000011920929,0.800000011920929);
#356=AXIS2_PLACEMENT_3D('',#495,#496,#497);
#357=PRE_DEFINED_MARKER('');
#358=COLOUR_RGB('',0.800000011920929,0.800000011920929,0.800000011920929);
#359=SURFACE_SIDE_STYLE('',(#498));
#360=EDGE_LOOP('',(#499,#500,#501,#502,#503,#504,#505,#506));
#361=AXIS2_PLACEMENT_3D('',#507,#508,#509);
#362=SURFACE_SIDE_STYLE('',(#510));
#363=EDGE_LOOP('',(#511,#512,#513,#514));
#364=AXIS2_PLACEMENT_3D('',#515,#516,#517);
#365=DRAUGHTING_PRE_DEFINED_CURVE_FONT('continuous');
#366=COLOUR_RGB('',0.800000011920929,0.800000011920929,0.800000011920929);
#367=CARTESIAN_POINT('',(4.7999999999,0.4,0.0));
#368=VECTOR('',#518,1.0);
#369=PRE_DEFINED_MARKER('');
#370=COLOUR_RGB('',0.800000011920929,0.800000011920929,0.800000011920929);
#371=PRE_DEFINED_MARKER('');
#372=COLOUR_RGB('',0.800000011920929,0.800000011920929,0.800000011920929);
#373=DRAUGHTING_PRE_DEFINED_CURVE_FONT('continuous');
#374=COLOUR_RGB('',0.800000011920929,0.800000011920929,0.800000011920929);
#375=AXIS2_PLACEMENT_3D('',#519,#520,#521);
#376=DRAUGHTING_PRE_DEFINED_CURVE_FONT('continuous');
#377=COLOUR_RGB('',0.800000011920929,0.800000011920929,0.800000011920929);
#378=AXIS2_PLACEMENT_3D('',#522,#523,#524);
#379=SURFACE_SIDE_STYLE('',(#525));
#380=SURFACE_SIDE_STYLE('',(#526));
#381=EDGE_LOOP('',(#527,#528,#529,#530,#531,#532,#533,#534));
#382=AXIS2_PLACEMENT_3D('',#535,#536,#537);
#383=DRAUGHTING_PRE_DEFINED_CURVE_FONT('continuous');
#384=COLOUR_RGB('',0.800000011920929,0.800000011920929,0.800000011920929);
#385=CARTESIAN_POINT('',(0.0,4.4,0.0));
#386=VECTOR('',#538,1.0);
#387=DRAUGHTING_PRE_DEFINED_CURVE_FONT('continuous');
#388=COLOUR_RGB('',0.800000011920929,0.800000011920929,0.800000011920929);
#389=CARTESIAN_POINT('',(4.4,4.7999999999,0.0));
#390=VECTOR('',#539,1.0);
#391=DRAUGHTING_PRE_DEFINED_CURVE_FONT('continuous');
#392=COLOUR_RGB('',0.800000011920929,0.800000011920929,0.800000011920929);
#393=CARTESIAN_POINT('',(9.99991200956174E-011,4.4,0.0));
#394=VECTOR('',#540,1.0);
#395=PRE_DEFINED_MARKER('');
#396=COLOUR_RGB('',0.800000011920929,0.800000011920929,0.800000011920929);
#397=DRAUGHTING_PRE_DEFINED_CURVE_FONT('continuous');
#398=COLOUR_RGB('',0.800000011920929,0.800000011920929,0.800000011920929);
#399=CARTESIAN_POINT('',(0.27012603398639,4.4,-2.2));
#400=VECTOR('',#541,1.0);
#401=SURFACE_SIDE_STYLE('',(#542));
#402=EDGE_LOOP('',(#543,#544,#545,#546));
#403=AXIS2_PLACEMENT_3D('',#547,#548,#549);
#404=DRAUGHTING_PRE_DEFINED_CURVE_FONT('continuous');
#405=COLOUR_RGB('',0.800000011920929,0.800000011920929,0.800000011920929);
#406=CARTESIAN_POINT('',(4.4,4.8,0.0));
#407=VECTOR('',#550,1.0);
#408=PRE_DEFINED_MARKER('');
#409=COLOUR_RGB('',0.800000011920929,0.800000011920929,0.800000011920929);
#410=PRE_DEFINED_MARKER('');
#411=COLOUR_RGB('',0.800000011920929,0.800000011920929,0.800000011920929);
#412=PRE_DEFINED_MARKER('');
#413=COLOUR_RGB('',0.800000011920929,0.800000011920929,0.800000011920929);
#414=DRAUGHTING_PRE_DEFINED_CURVE_FONT('continuous');
#415=COLOUR_RGB('',0.800000011920929,0.800000011920929,0.800000011920929);
#416=AXIS2_PLACEMENT_3D('',#551,#552,#553);
#417=DRAUGHTING_PRE_DEFINED_CURVE_FONT('continuous');
#418=COLOUR_RGB('',0.800000011920929,0.800000011920929,0.800000011920929);
#419=CARTESIAN_POINT('',(0.4,0.0,0.0));
#420=VECTOR('',#554,1.0);
#421=SURFACE_SIDE_STYLE('',(#555));
#422=EDGE_LOOP('',(#556,#557,#558,#559));
#423=AXIS2_PLACEMENT_3D('',#560,#561,#562);
#424=PRE_DEFINED_MARKER('');
#425=COLOUR_RGB('',0.800000011920929,0.800000011920929,0.800000011920929);
#426=DRAUGHTING_PRE_DEFINED_CURVE_FONT('continuous');
#427=COLOUR_RGB('',0.800000011920929,0.800000011920929,0.800000011920929);
#428=CARTESIAN_POINT('',(4.52987396601361,0.4,-2.2));
#429=VECTOR('',#563,1.0);
#430=PRE_DEFINED_MARKER('');
#431=COLOUR_RGB('',0.800000011920929,0.800000011920929,0.800000011920929);
#432=SURFACE_SIDE_STYLE('',(#564));
#433=EDGE_LOOP('',(#565,#566,#567,#568));
#434=AXIS2_PLACEMENT_3D('',#569,#570,#571);
#435=DRAUGHTING_PRE_DEFINED_CURVE_FONT('continuous');
#436=COLOUR_RGB('',0.800000011920929,0.800000011920929,0.800000011920929);
#437=CARTESIAN_POINT('',(4.4,0.0,0.0));
#438=VECTOR('',#572,1.0);
#439=PRE_DEFINED_MARKER('');
#440=COLOUR_RGB('',0.800000011920929,0.800000011920929,0.800000011920929);
#441=DRAUGHTING_PRE_DEFINED_CURVE_FONT('continuous');
#442=COLOUR_RGB('',0.800000011920929,0.800000011920929,0.800000011920929);
#443=CARTESIAN_POINT('',(0.4,0.27012603398639,-2.2));
#444=VECTOR('',#573,1.0);
#445=PRE_DEFINED_MARKER('');
#446=COLOUR_RGB('',0.800000011920929,0.800000011920929,0.800000011920929);
#447=PRE_DEFINED_MARKER('');
#448=COLOUR_RGB('',0.800000011920929,0.800000011920929,0.800000011920929);
#449=PRE_DEFINED_MARKER('');
#450=COLOUR_RGB('',0.800000011920929,0.800000011920929,0.800000011920929);
#451=SURFACE_SIDE_STYLE('',(#574));
#452=EDGE_LOOP('',(#575,#576,#577,#578));
#453=AXIS2_PLACEMENT_3D('',#579,#580,#581);
#454=DRAUGHTING_PRE_DEFINED_CURVE_FONT('continuous');
#455=COLOUR_RGB('',0.800000011920929,0.800000011920929,0.800000011920929);
#456=CARTESIAN_POINT('',(4.8,4.4,0.0));
#457=VECTOR('',#582,1.0);
#458=SURFACE_SIDE_STYLE('',(#583));
#459=EDGE_LOOP('',(#584,#585,#586,#587));
#460=AXIS2_PLACEMENT_3D('',#588,#589,#590);
#462=DIRECTION('',(0.0,1.0,0.0));
#463=CARTESIAN_POINT('',(4.3999999999,4.3999999999,0.0));
#464=DIRECTION('',(0.0,-0.0,1.0));
#465=DIRECTION('',(1.0,2.50002241131141E-010,0.0));
#466=DIRECTION('',(3.0467473444198E-011,-0.121869343449593,-0.992546151635865));
#467=CARTESIAN_POINT('',(0.4000000001,4.3999999999,0.0));
#468=DIRECTION('',(0.0,0.0,1.0));
#469=DIRECTION('',(-2.50001269685995E-010,1.0,0.0));
#470=DIRECTION('',(0.121869343449593,3.04673231786175E-011,-0.992546151635865));
#471=DIRECTION('',(-1.0,0.0,0.0));
#472=DIRECTION('',(0.0,0.121869343405147,-0.992546151641322));
#473=SURFACE_STYLE_FILL_AREA(#591);
#474=ORIENTED_EDGE('',*,*,#119,.T.);
#475=ORIENTED_EDGE('',*,*,#91,.F.);
#476=ORIENTED_EDGE('',*,*,#145,.F.);
#477=ORIENTED_EDGE('',*,*,#87,.T.);
#478=CARTESIAN_POINT('',(0.4000000001,0.4000000001,0.0));
#479=DIRECTION('',(0.0,-0.0,1.0));
#480=DIRECTION('',(-1.0,-2.49998494128434E-010,0.0));
#481=CARTESIAN_POINT('',(4.3999999999,0.4000000001,0.0));
#482=DIRECTION('',(0.0,0.0,1.0));
#483=DIRECTION('',(2.50000020685093E-010,-1.0,0.0));
#484=CARTESIAN_POINT('',(4.3999999999,4.3999999999,-2.2));
#485=DIRECTION('',(0.0,-0.0,1.0));
#486=DIRECTION('',(1.0,2.50002241131141E-010,0.0));
#487=SURFACE_STYLE_FILL_AREA(#592);
#488=ORIENTED_EDGE('',*,*,#153,.T.);
#489=ORIENTED_EDGE('',*,*,#173,.F.);
#490=ORIENTED_EDGE('',*,*,#75,.F.);
#491=ORIENTED_EDGE('',*,*,#111,.T.);
#492=CARTESIAN_POINT('',(4.7999999999,0.4,0.0));
#493=DIRECTION('',(0.992546151646779,-0.0,-0.121869343360702));
#494=DIRECTION('',(-0.0,-1.0,0.0));
#495=CARTESIAN_POINT('',(0.4000000001,4.3999999999,-2.2));
#496=DIRECTION('',(0.0,0.0,1.0));
#497=DIRECTION('',(-2.50001269685995E-010,1.0,0.0));
#498=SURFACE_STYLE_FILL_AREA(#593);
#499=ORIENTED_EDGE('',*,*,#117,.F.);
#500=ORIENTED_EDGE('',*,*,#163,.F.);
#501=ORIENTED_EDGE('',*,*,#119,.F.);
#502=ORIENTED_EDGE('',*,*,#133,.F.);
#503=ORIENTED_EDGE('',*,*,#103,.F.);
#504=ORIENTED_EDGE('',*,*,#89,.F.);
#505=ORIENTED_EDGE('',*,*,#97,.F.);
#506=ORIENTED_EDGE('',*,*,#153,.F.);
#507=CARTESIAN_POINT('',(2.4,2.4,-2.2));
#508=DIRECTION('',(0.0,0.0,1.0));
#509=DIRECTION('',(1.0,0.0,0.0));
#510=SURFACE_STYLE_FILL_AREA(#594);
#511=ORIENTED_EDGE('',*,*,#117,.T.);
#512=ORIENTED_EDGE('',*,*,#111,.F.);
#513=ORIENTED_EDGE('',*,*,#95,.F.);
#514=ORIENTED_EDGE('',*,*,#159,.T.);
#515=CARTESIAN_POINT('',(4.3999999999,0.4000000001,0.0));
#516=DIRECTION('',(-0.0,-0.0,1.0));
#517=DIRECTION('',(2.50000020685093E-010,-1.0,0.0));
#518=DIRECTION('',(-0.121869343360702,0.0,-0.992546151646779));
#519=CARTESIAN_POINT('',(4.3999999999,0.4000000001,-2.2));
#520=DIRECTION('',(0.0,0.0,1.0));
#521=DIRECTION('',(2.50000020685093E-010,-1.0,0.0));
#522=CARTESIAN_POINT('',(0.4000000001,0.4000000001,-2.2));
#523=DIRECTION('',(0.0,0.0,1.0));
#524=DIRECTION('',(-1.0,-2.49998494128434E-010,0.0));
#525=SURFACE_STYLE_FILL_AREA(#595);
#526=SURFACE_STYLE_FILL_AREA(#596);
#527=ORIENTED_EDGE('',*,*,#147,.T.);
#528=ORIENTED_EDGE('',*,*,#95,.T.);
#529=ORIENTED_EDGE('',*,*,#75,.T.);
#530=ORIENTED_EDGE('',*,*,#79,.T.);
#531=ORIENTED_EDGE('',*,*,#137,.T.);
#532=ORIENTED_EDGE('',*,*,#85,.T.);
#533=ORIENTED_EDGE('',*,*,#125,.T.);
#534=ORIENTED_EDGE('',*,*,#145,.T.);
#535=CARTESIAN_POINT('',(2.4,2.4,0.0));
#536=DIRECTION('',(0.0,0.0,1.0));
#537=DIRECTION('',(1.0,0.0,0.0));
#538=DIRECTION('',(0.0,-1.0,0.0));
#539=DIRECTION('',(0.0,-0.121869343360701,-0.992546151646779));
#540=DIRECTION('',(0.121869343360702,0.0,-0.992546151646779));
#541=DIRECTION('',(0.0,-1.0,0.0));
#542=SURFACE_STYLE_FILL_AREA(#597);
#543=ORIENTED_EDGE('',*,*,#103,.T.);
#544=ORIENTED_EDGE('',*,*,#129,.F.);
#545=ORIENTED_EDGE('',*,*,#85,.F.);
#546=ORIENTED_EDGE('',*,*,#81,.T.);
#547=CARTESIAN_POINT('',(0.4000000001,4.3999999999,0.0));
#548=DIRECTION('',(-0.0,-0.0,1.0));
#549=DIRECTION('',(-2.50001269685995E-010,1.0,0.0));
#550=DIRECTION('',(-1.0,0.0,0.0));
#551=CARTESIAN_POINT('',(0.4000000001,0.4000000001,0.0));
#552=DIRECTION('',(0.0,0.0,1.0));
#553=DIRECTION('',(-1.0,-2.49998494128434E-010,0.0));
#554=DIRECTION('',(1.0,0.0,0.0));
#555=SURFACE_STYLE_FILL_AREA(#598);
#556=ORIENTED_EDGE('',*,*,#97,.T.);
#557=ORIENTED_EDGE('',*,*,#127,.F.);
#558=ORIENTED_EDGE('',*,*,#79,.F.);
#559=ORIENTED_EDGE('',*,*,#173,.T.);
#560=CARTESIAN_POINT('',(4.3999999999,4.3999999999,0.0));
#561=DIRECTION('',(-0.0,-0.0,1.0));
#562=DIRECTION('',(1.0,2.50002241131141E-010,0.0));
#563=DIRECTION('',(0.0,1.0,0.0));
#564=SURFACE_STYLE_FILL_AREA(#599);
#565=ORIENTED_EDGE('',*,*,#133,.T.);
#566=ORIENTED_EDGE('',*,*,#87,.F.);
#567=ORIENTED_EDGE('',*,*,#125,.F.);
#568=ORIENTED_EDGE('',*,*,#129,.T.);
#569=CARTESIAN_POINT('',(9.99991200956174E-011,4.4,0.0));
#570=DIRECTION('',(-0.992546151646779,0.0,-0.121869343360702));
#571=DIRECTION('',(0.0,1.0,0.0));
#572=DIRECTION('',(-3.04670476917198E-011,0.121869343449593,-0.992546151635865));
#573=DIRECTION('',(1.0,0.0,0.0));
#574=SURFACE_STYLE_FILL_AREA(#600);
#575=ORIENTED_EDGE('',*,*,#89,.T.);
#576=ORIENTED_EDGE('',*,*,#81,.F.);
#577=ORIENTED_EDGE('',*,*,#137,.F.);
#578=ORIENTED_EDGE('',*,*,#127,.T.);
#579=CARTESIAN_POINT('',(4.4,4.7999999999,0.0));
#580=DIRECTION('',(0.0,0.992546151646779,-0.121869343360701));
#581=DIRECTION('',(1.0,-0.0,0.0));
#582=DIRECTION('',(-0.121869343449593,-3.04674483999346E-011,-0.992546151635865));
#583=SURFACE_STYLE_FILL_AREA(#601);
#584=ORIENTED_EDGE('',*,*,#163,.T.);
#585=ORIENTED_EDGE('',*,*,#159,.F.);
#586=ORIENTED_EDGE('',*,*,#147,.F.);
#587=ORIENTED_EDGE('',*,*,#91,.T.);
#588=CARTESIAN_POINT('',(0.4,0.0,0.0));
#589=DIRECTION('',(-0.0,-0.992546151641322,-0.121869343405147));
#590=DIRECTION('',(-1.0,0.0,0.0));
#591=FILL_AREA_STYLE('',(#602));
#592=FILL_AREA_STYLE('',(#603));
#593=FILL_AREA_STYLE('',(#604));
#594=FILL_AREA_STYLE('',(#605));
#595=FILL_AREA_STYLE('',(#606));
#596=FILL_AREA_STYLE('',(#607));
#597=FILL_AREA_STYLE('',(#608));
#598=FILL_AREA_STYLE('',(#609));
#599=FILL_AREA_STYLE('',(#610));
#600=FILL_AREA_STYLE('',(#611));
#601=FILL_AREA_STYLE('',(#612));
#602=FILL_AREA_STYLE_COLOUR('',#613);
#603=FILL_AREA_STYLE_COLOUR('',#614);
#604=FILL_AREA_STYLE_COLOUR('',#615);
#605=FILL_AREA_STYLE_COLOUR('',#616);
#606=FILL_AREA_STYLE_COLOUR('',#617);
#607=FILL_AREA_STYLE_COLOUR('',#618);
#608=FILL_AREA_STYLE_COLOUR('',#619);
#609=FILL_AREA_STYLE_COLOUR('',#620);
#610=FILL_AREA_STYLE_COLOUR('',#621);
#611=FILL_AREA_STYLE_COLOUR('',#622);
#612=FILL_AREA_STYLE_COLOUR('',#623);
#613=COLOUR_RGB('',0.800000011920929,0.800000011920929,0.800000011920929);
#614=COLOUR_RGB('',0.800000011920929,0.800000011920929,0.800000011920929);
#615=COLOUR_RGB('',0.800000011920929,0.800000011920929,0.800000011920929);
#616=COLOUR_RGB('',0.800000011920929,0.800000011920929,0.800000011920929);
#617=COLOUR_RGB('',0.800000011920929,0.800000011920929,0.800000011920929);
#618=COLOUR_RGB('',0.800000011920929,0.800000011920929,0.800000011920929);
#619=COLOUR_RGB('',0.800000011920929,0.800000011920929,0.800000011920929);
#620=COLOUR_RGB('',0.800000011920929,0.800000011920929,0.800000011920929);
#621=COLOUR_RGB('',0.800000011920929,0.800000011920929,0.800000011920929);
#622=COLOUR_RGB('',0.800000011920929,0.800000011920929,0.800000011920929);
#623=COLOUR_RGB('',0.800000011920929,0.800000011920929,0.800000011920929);
#624=AXIS2_PLACEMENT_3D('PCS',#625,#626,#627);
#625=CARTESIAN_POINT('',(0.0,0.0,0.0));
#626=DIRECTION('',(0.0,0.0,1.0));
#627=DIRECTION('',(1.0,0.0,0.0));
#628=AXIS2_PLACEMENT_3D('MCS',#629,#630,#631);
#629=CARTESIAN_POINT('',(2.4,2.4,0.0));
#630=DIRECTION('',(0.0,0.0,1.0));
#631=DIRECTION('',(1.0,0.0,0.0));
#632=CONSTRUCTIVE_GEOMETRY_REPRESENTATION_RELATIONSHIP('coordinate systems',$,#65,#633);
#633=CONSTRUCTIVE_GEOMETRY_REPRESENTATION('coordinate systems',(#624,#628),#6);
ENDSEC;
END-ISO-10303-21;
