ISO-10303-21;
HEADER;
FILE_DESCRIPTION(('no description'),'unknown implementation level');
FILE_NAME('solidh6LEkoNyaXFMiCFYgXzue3ZRxhk_1.STP','  ',('CIMSOURCE GmbH'),('CADClick - KiM GmbH - www.kimweb.de'),'unknown preprocess','ACIS','unknown authorization');
FILE_SCHEMA(('automotive_design'));
ENDSEC;
DATA;
#1=MECHANICAL_DESIGN_GEOMETRIC_PRESENTATION_REPRESENTATION(' ',(#10,#11,#12,#13,#14,#15,#16,#17,#18,#19,#20,#21,#22,#23,#24,#25,#26,#27,#28,#29,#30,#31,#32,#33,#34,#35,#36,#37,#38,#39,#40,#41,#42,#43,#44,#45,#46,#47,#48,#49,#50,#51,#52,#53,#54,#55,#56,#57,#58,#59,#60),#6);
#2=PRODUCT_DEFINITION_CONTEXT('',#61,'design');
#3=APPLICATION_PROTOCOL_DEFINITION('INTERNATIONAL STANDARD','automotive_design',1994,#61);
#4=PRODUCT_CATEGORY_RELATIONSHIP('NONE','NONE',#62,#63);
#5=SHAPE_DEFINITION_REPRESENTATION(#64,#65);
#6= (GEOMETRIC_REPRESENTATION_CONTEXT(3)GLOBAL_UNCERTAINTY_ASSIGNED_CONTEXT((#68))GLOBAL_UNIT_ASSIGNED_CONTEXT((#70,#71,#72))REPRESENTATION_CONTEXT('NONE','WORKSPACE'));
#10=STYLED_ITEM('',(#74),#75);
#11=STYLED_ITEM('',(#76),#77);
#12=STYLED_ITEM('',(#78),#79);
#13=STYLED_ITEM('',(#80),#81);
#14=STYLED_ITEM('',(#82),#83);
#15=STYLED_ITEM('',(#84),#85);
#16=STYLED_ITEM('',(#86),#87);
#17=STYLED_ITEM('',(#88),#89);
#18=STYLED_ITEM('',(#90),#91);
#19=STYLED_ITEM('',(#92),#93);
#20=STYLED_ITEM('',(#94),#95);
#21=STYLED_ITEM('',(#96),#97);
#22=STYLED_ITEM('',(#98),#99);
#23=STYLED_ITEM('',(#100),#101);
#24=STYLED_ITEM('',(#102),#103);
#25=STYLED_ITEM('',(#104),#105);
#26=STYLED_ITEM('',(#106),#107);
#27=STYLED_ITEM('',(#108),#109);
#28=STYLED_ITEM('',(#110),#111);
#29=STYLED_ITEM('',(#112),#113);
#30=STYLED_ITEM('',(#114),#115);
#31=STYLED_ITEM('',(#116),#117);
#32=STYLED_ITEM('',(#118),#119);
#33=STYLED_ITEM('',(#120),#121);
#34=STYLED_ITEM('',(#122),#123);
#35=STYLED_ITEM('',(#124),#125);
#36=STYLED_ITEM('',(#126),#127);
#37=STYLED_ITEM('',(#128),#129);
#38=STYLED_ITEM('',(#130),#131);
#39=STYLED_ITEM('',(#132),#133);
#40=STYLED_ITEM('',(#134),#135);
#41=STYLED_ITEM('',(#136),#137);
#42=STYLED_ITEM('',(#138),#139);
#43=STYLED_ITEM('',(#140),#141);
#44=STYLED_ITEM('',(#142),#143);
#45=STYLED_ITEM('',(#144),#145);
#46=STYLED_ITEM('',(#146),#147);
#47=STYLED_ITEM('',(#148),#149);
#48=STYLED_ITEM('',(#150),#151);
#49=STYLED_ITEM('',(#152),#153);
#50=STYLED_ITEM('',(#154),#155);
#51=STYLED_ITEM('',(#156),#157);
#52=STYLED_ITEM('',(#158),#159);
#53=STYLED_ITEM('',(#160),#161);
#54=STYLED_ITEM('',(#162),#163);
#55=STYLED_ITEM('',(#164),#165);
#56=STYLED_ITEM('',(#166),#167);
#57=STYLED_ITEM('',(#168),#169);
#58=STYLED_ITEM('',(#170),#171);
#59=STYLED_ITEM('',(#172),#173);
#60=STYLED_ITEM('',(#174),#175);
#61=APPLICATION_CONTEXT(' ');
#62=PRODUCT_CATEGORY('part','NONE');
#63=PRODUCT_RELATED_PRODUCT_CATEGORY('detail',' ',(#176));
#64=PRODUCT_DEFINITION_SHAPE('NONE','NONE',#177);
#65=ADVANCED_BREP_SHAPE_REPRESENTATION('1',(#147,#178),#6);
#68=UNCERTAINTY_MEASURE_WITH_UNIT(LENGTH_MEASURE(1.0E-006),#70,'','');
#70= (CONVERSION_BASED_UNIT('MILLIMETRE',#181)LENGTH_UNIT()NAMED_UNIT(#184));
#71= (NAMED_UNIT(#186)PLANE_ANGLE_UNIT()SI_UNIT($,.RADIAN.));
#72= (NAMED_UNIT(#186)SOLID_ANGLE_UNIT()SI_UNIT($,.STERADIAN.));
#74=PRESENTATION_STYLE_ASSIGNMENT((#192));
#75=VERTEX_POINT('',#193);
#76=PRESENTATION_STYLE_ASSIGNMENT((#194));
#77=EDGE_CURVE('',#169,#75,#195,.T.);
#78=PRESENTATION_STYLE_ASSIGNMENT((#196));
#79=ADVANCED_FACE('',(#197),#198,.T.);
#80=PRESENTATION_STYLE_ASSIGNMENT((#199));
#81=EDGE_CURVE('',#91,#95,#200,.T.);
#82=PRESENTATION_STYLE_ASSIGNMENT((#201));
#83=ADVANCED_FACE('',(#202),#203,.T.);
#84=PRESENTATION_STYLE_ASSIGNMENT((#204));
#85=EDGE_CURVE('',#143,#157,#205,.T.);
#86=PRESENTATION_STYLE_ASSIGNMENT((#206));
#87=ADVANCED_FACE('',(#207),#208,.T.);
#88=PRESENTATION_STYLE_ASSIGNMENT((#209));
#89=EDGE_CURVE('',#153,#121,#210,.T.);
#90=PRESENTATION_STYLE_ASSIGNMENT((#211));
#91=VERTEX_POINT('',#212);
#92=PRESENTATION_STYLE_ASSIGNMENT((#213));
#93=EDGE_CURVE('',#163,#91,#214,.T.);
#94=PRESENTATION_STYLE_ASSIGNMENT((#215));
#95=VERTEX_POINT('',#216);
#96=PRESENTATION_STYLE_ASSIGNMENT((#217));
#97=VERTEX_POINT('',#218);
#98=PRESENTATION_STYLE_ASSIGNMENT((#219));
#99=EDGE_CURVE('',#161,#95,#220,.T.);
#100=PRESENTATION_STYLE_ASSIGNMENT((#221));
#101=ADVANCED_FACE('',(#222),#223,.T.);
#102=PRESENTATION_STYLE_ASSIGNMENT((#224));
#103=EDGE_CURVE('',#125,#153,#225,.T.);
#104=PRESENTATION_STYLE_ASSIGNMENT((#226));
#105=EDGE_CURVE('',#153,#127,#227,.T.);
#106=PRESENTATION_STYLE_ASSIGNMENT((#228));
#107=VERTEX_POINT('',#229);
#108=PRESENTATION_STYLE_ASSIGNMENT((#230));
#109=EDGE_CURVE('',#161,#159,#231,.T.);
#110=PRESENTATION_STYLE_ASSIGNMENT((#232));
#111=EDGE_CURVE('',#125,#157,#233,.T.);
#112=PRESENTATION_STYLE_ASSIGNMENT((#234));
#113=EDGE_CURVE('',#107,#91,#235,.T.);
#114=PRESENTATION_STYLE_ASSIGNMENT((#236));
#115=EDGE_CURVE('',#169,#145,#237,.T.);
#116=PRESENTATION_STYLE_ASSIGNMENT((#238));
#117=EDGE_CURVE('',#121,#97,#239,.T.);
#118=PRESENTATION_STYLE_ASSIGNMENT((#240));
#119=EDGE_CURVE('',#75,#163,#241,.T.);
#120=PRESENTATION_STYLE_ASSIGNMENT((#242));
#121=VERTEX_POINT('',#243);
#122=PRESENTATION_STYLE_ASSIGNMENT((#244));
#123=EDGE_CURVE('',#159,#125,#245,.T.);
#124=PRESENTATION_STYLE_ASSIGNMENT((#246));
#125=VERTEX_POINT('',#247);
#126=PRESENTATION_STYLE_ASSIGNMENT((#248));
#127=VERTEX_POINT('',#249);
#128=PRESENTATION_STYLE_ASSIGNMENT((#250));
#129=EDGE_CURVE('',#95,#143,#251,.T.);
#130=PRESENTATION_STYLE_ASSIGNMENT((#252));
#131=EDGE_CURVE('',#157,#121,#253,.T.);
#132=PRESENTATION_STYLE_ASSIGNMENT((#254));
#133=EDGE_CURVE('',#145,#107,#255,.T.);
#134=PRESENTATION_STYLE_ASSIGNMENT((#256));
#135=EDGE_CURVE('',#127,#169,#257,.T.);
#136=PRESENTATION_STYLE_ASSIGNMENT((#258));
#137=ADVANCED_FACE('',(#259),#260,.T.);
#138=PRESENTATION_STYLE_ASSIGNMENT((#261));
#139=ADVANCED_FACE('',(#262),#263,.T.);
#140=PRESENTATION_STYLE_ASSIGNMENT((#264));
#141=EDGE_CURVE('',#75,#107,#265,.T.);
#142=PRESENTATION_STYLE_ASSIGNMENT((#266));
#143=VERTEX_POINT('',#267);
#144=PRESENTATION_STYLE_ASSIGNMENT((#268));
#145=VERTEX_POINT('',#269);
#146=PRESENTATION_STYLE_ASSIGNMENT((#270));
#147=MANIFOLD_SOLID_BREP('1',#271);
#148=PRESENTATION_STYLE_ASSIGNMENT((#272));
#149=ADVANCED_FACE('',(#273),#274,.F.);
#150=PRESENTATION_STYLE_ASSIGNMENT((#275));
#151=ADVANCED_FACE('',(#276),#277,.T.);
#152=PRESENTATION_STYLE_ASSIGNMENT((#278));
#153=VERTEX_POINT('',#279);
#154=PRESENTATION_STYLE_ASSIGNMENT((#280));
#155=EDGE_CURVE('',#159,#143,#281,.T.);
#156=PRESENTATION_STYLE_ASSIGNMENT((#282));
#157=VERTEX_POINT('',#283);
#158=PRESENTATION_STYLE_ASSIGNMENT((#284));
#159=VERTEX_POINT('',#285);
#160=PRESENTATION_STYLE_ASSIGNMENT((#286));
#161=VERTEX_POINT('',#287);
#162=PRESENTATION_STYLE_ASSIGNMENT((#288));
#163=VERTEX_POINT('',#289);
#164=PRESENTATION_STYLE_ASSIGNMENT((#290));
#165=ADVANCED_FACE('',(#291),#292,.T.);
#166=PRESENTATION_STYLE_ASSIGNMENT((#293));
#167=EDGE_CURVE('',#127,#97,#294,.T.);
#168=PRESENTATION_STYLE_ASSIGNMENT((#295));
#169=VERTEX_POINT('',#296);
#170=PRESENTATION_STYLE_ASSIGNMENT((#297));
#171=ADVANCED_FACE('',(#298),#299,.T.);
#172=PRESENTATION_STYLE_ASSIGNMENT((#300));
#173=EDGE_CURVE('',#97,#145,#301,.T.);
#174=PRESENTATION_STYLE_ASSIGNMENT((#302));
#175=EDGE_CURVE('',#163,#161,#303,.T.);
#176=PRODUCT('1','1','PART-1-DESC',(#304));
#177=PRODUCT_DEFINITION('NONE','NONE',#305,#2);
#178=AXIS2_PLACEMENT_3D('',#306,#307,#308);
#181=LENGTH_MEASURE_WITH_UNIT(LENGTH_MEASURE(1.0),#309);
#184=DIMENSIONAL_EXPONENTS(1.0,0.0,0.0,0.0,0.0,0.0,0.0);
#186=DIMENSIONAL_EXPONENTS(0.0,0.0,0.0,0.0,0.0,0.0,0.0);
#192=POINT_STYLE(' ',#310,POSITIVE_LENGTH_MEASURE(1.0E-006),#311);
#193=CARTESIAN_POINT('',(0.0,0.600000000000001,0.0));
#194=CURVE_STYLE('',#312,POSITIVE_LENGTH_MEASURE(1.0E-006),#313);
#195=LINE('',#314,#315);
#196=SURFACE_STYLE_USAGE(.BOTH.,#316);
#197=FACE_OUTER_BOUND('',#317,.T.);
#198=PLANE('',#318);
#199=CURVE_STYLE('',#319,POSITIVE_LENGTH_MEASURE(1.0E-006),#320);
#200=LINE('',#321,#322);
#201=SURFACE_STYLE_USAGE(.BOTH.,#323);
#202=FACE_OUTER_BOUND('',#324,.T.);
#203=CONICAL_SURFACE('',#325,0.600000000000001,0.122173047639603);
#204=CURVE_STYLE('',#326,POSITIVE_LENGTH_MEASURE(1.0E-006),#327);
#205=LINE('',#328,#329);
#206=SURFACE_STYLE_USAGE(.BOTH.,#330);
#207=FACE_OUTER_BOUND('',#331,.T.);
#208=CONICAL_SURFACE('',#332,0.6,0.122173047639603);
#209=CURVE_STYLE('',#333,POSITIVE_LENGTH_MEASURE(1.0E-006),#334);
#210=LINE('',#335,#336);
#211=POINT_STYLE(' ',#337,POSITIVE_LENGTH_MEASURE(1.0E-006),#338);
#212=CARTESIAN_POINT('',(0.6,0.343796770528132,-2.8));
#213=CURVE_STYLE('',#339,POSITIVE_LENGTH_MEASURE(1.0E-006),#340);
#214=LINE('',#341,#342);
#215=POINT_STYLE(' ',#343,POSITIVE_LENGTH_MEASURE(1.0E-006),#344);
#216=CARTESIAN_POINT('',(5.5999999999427,0.343796770628132,-2.8));
#217=POINT_STYLE(' ',#345,POSITIVE_LENGTH_MEASURE(1.0E-006),#346);
#218=CARTESIAN_POINT('',(0.600000000057299,5.85620322937187,-2.8));
#219=CURVE_STYLE('',#347,POSITIVE_LENGTH_MEASURE(1.0E-006),#348);
#220=LINE('',#349,#350);
#221=SURFACE_STYLE_USAGE(.BOTH.,#351);
#222=FACE_OUTER_BOUND('',#352,.T.);
#223=PLANE('',#353);
#224=CURVE_STYLE('',#354,POSITIVE_LENGTH_MEASURE(1.0E-006),#355);
#225=CIRCLE('',#356,0.600000000000001);
#226=CURVE_STYLE('',#357,POSITIVE_LENGTH_MEASURE(1.0E-006),#358);
#227=LINE('',#359,#360);
#228=POINT_STYLE(' ',#361,POSITIVE_LENGTH_MEASURE(1.0E-006),#362);
#229=CARTESIAN_POINT('',(0.343796770628132,0.6000000000573,-2.8));
#230=CURVE_STYLE('',#363,POSITIVE_LENGTH_MEASURE(1.0E-006),#364);
#231=CIRCLE('',#365,0.6);
#232=CURVE_STYLE('',#366,POSITIVE_LENGTH_MEASURE(1.0E-006),#367);
#233=LINE('',#368,#369);
#234=CURVE_STYLE('',#370,POSITIVE_LENGTH_MEASURE(1.0E-006),#371);
#235=CIRCLE('',#372,0.256203229471868);
#236=CURVE_STYLE('',#373,POSITIVE_LENGTH_MEASURE(1.0E-006),#374);
#237=LINE('',#375,#376);
#238=CURVE_STYLE('',#377,POSITIVE_LENGTH_MEASURE(1.0E-006),#378);
#239=LINE('',#379,#380);
#240=CURVE_STYLE('',#381,POSITIVE_LENGTH_MEASURE(1.0E-006),#382);
#241=CIRCLE('',#383,0.6);
#242=POINT_STYLE(' ',#384,POSITIVE_LENGTH_MEASURE(1.0E-006),#385);
#243=CARTESIAN_POINT('',(5.6,5.85620322947187,-2.8));
#244=CURVE_STYLE('',#386,POSITIVE_LENGTH_MEASURE(1.0E-006),#387);
#245=LINE('',#388,#389);
#246=POINT_STYLE(' ',#390,POSITIVE_LENGTH_MEASURE(1.0E-006),#391);
#247=CARTESIAN_POINT('',(6.2,5.6,0.0));
#248=POINT_STYLE(' ',#392,POSITIVE_LENGTH_MEASURE(1.0E-006),#393);
#249=CARTESIAN_POINT('',(0.6,6.2,0.0));
#250=CURVE_STYLE('',#394,POSITIVE_LENGTH_MEASURE(1.0E-006),#395);
#251=CIRCLE('',#396,0.256203229471868);
#252=CURVE_STYLE('',#397,POSITIVE_LENGTH_MEASURE(1.0E-006),#398);
#253=CIRCLE('',#399,0.256203229471868);
#254=CURVE_STYLE('',#400,POSITIVE_LENGTH_MEASURE(1.0E-006),#401);
#255=LINE('',#402,#403);
#256=CURVE_STYLE('',#404,POSITIVE_LENGTH_MEASURE(1.0E-006),#405);
#257=CIRCLE('',#406,0.6);
#258=SURFACE_STYLE_USAGE(.BOTH.,#407);
#259=FACE_OUTER_BOUND('',#408,.T.);
#260=PLANE('',#409);
#261=SURFACE_STYLE_USAGE(.BOTH.,#410);
#262=FACE_OUTER_BOUND('',#411,.T.);
#263=CONICAL_SURFACE('',#412,0.6,0.122173047639603);
#264=CURVE_STYLE('',#413,POSITIVE_LENGTH_MEASURE(1.0E-006),#414);
#265=LINE('',#415,#416);
#266=POINT_STYLE(' ',#417,POSITIVE_LENGTH_MEASURE(1.0E-006),#418);
#267=CARTESIAN_POINT('',(5.85620322947187,0.6,-2.8));
#268=POINT_STYLE(' ',#419,POSITIVE_LENGTH_MEASURE(1.0E-006),#420);
#269=CARTESIAN_POINT('',(0.343796770528132,5.6,-2.8));
#270=SURFACE_STYLE_USAGE(.BOTH.,#421);
#271=CLOSED_SHELL('',(#165,#79,#83,#137,#139,#151,#87,#101,#149,#171));
#272=SURFACE_STYLE_USAGE(.BOTH.,#422);
#273=FACE_OUTER_BOUND('',#423,.T.);
#274=PLANE('',#424);
#275=SURFACE_STYLE_USAGE(.BOTH.,#425);
#276=FACE_OUTER_BOUND('',#426,.T.);
#277=PLANE('',#427);
#278=POINT_STYLE(' ',#428,POSITIVE_LENGTH_MEASURE(1.0E-006),#429);
#279=CARTESIAN_POINT('',(5.6,6.1999999999,0.0));
#280=CURVE_STYLE('',#430,POSITIVE_LENGTH_MEASURE(1.0E-006),#431);
#281=LINE('',#432,#433);
#282=POINT_STYLE(' ',#434,POSITIVE_LENGTH_MEASURE(1.0E-006),#435);
#283=CARTESIAN_POINT('',(5.85620322937187,5.5999999999427,-2.8));
#284=POINT_STYLE(' ',#436,POSITIVE_LENGTH_MEASURE(1.0E-006),#437);
#285=CARTESIAN_POINT('',(6.1999999999,0.6,0.0));
#286=POINT_STYLE(' ',#438,POSITIVE_LENGTH_MEASURE(1.0E-006),#439);
#287=CARTESIAN_POINT('',(5.6,0.0,0.0));
#288=POINT_STYLE(' ',#440,POSITIVE_LENGTH_MEASURE(1.0E-006),#441);
#289=CARTESIAN_POINT('',(0.6,0.0,0.0));
#290=SURFACE_STYLE_USAGE(.BOTH.,#442);
#291=FACE_OUTER_BOUND('',#443,.T.);
#292=CONICAL_SURFACE('',#444,0.6,0.122173047639603);
#293=CURVE_STYLE('',#445,POSITIVE_LENGTH_MEASURE(1.0E-006),#446);
#294=LINE('',#447,#448);
#295=POINT_STYLE(' ',#449,POSITIVE_LENGTH_MEASURE(1.0E-006),#450);
#296=CARTESIAN_POINT('',(1.00000452363247E-010,5.6,0.0));
#297=SURFACE_STYLE_USAGE(.BOTH.,#451);
#298=FACE_OUTER_BOUND('',#452,.T.);
#299=PLANE('',#453);
#300=CURVE_STYLE('',#454,POSITIVE_LENGTH_MEASURE(1.0E-006),#455);
#301=CIRCLE('',#456,0.256203229471868);
#302=CURVE_STYLE('',#457,POSITIVE_LENGTH_MEASURE(1.0E-006),#458);
#303=LINE('',#459,#460);
#304=PRODUCT_CONTEXT('',#61,'mechanical');
#305=PRODUCT_DEFINITION_FORMATION_WITH_SPECIFIED_SOURCE(' ','NONE',#176,.NOT_KNOWN.);
#306=CARTESIAN_POINT('',(0.0,0.0,0.0));
#307=DIRECTION('',(0.0,0.0,1.0));
#308=DIRECTION('',(1.0,0.0,0.0));
#309= (NAMED_UNIT(#184)LENGTH_UNIT()SI_UNIT(.MILLI.,.METRE.));
#310=PRE_DEFINED_MARKER('');
#311=COLOUR_RGB('',0.800000011920929,0.800000011920929,0.800000011920929);
#312=DRAUGHTING_PRE_DEFINED_CURVE_FONT('continuous');
#313=COLOUR_RGB('',0.800000011920929,0.800000011920929,0.800000011920929);
#314=CARTESIAN_POINT('',(0.0,5.6,0.0));
#315=VECTOR('',#462,1.0);
#316=SURFACE_SIDE_STYLE('',(#463));
#317=EDGE_LOOP('',(#464,#465,#466,#467));
#318=AXIS2_PLACEMENT_3D('',#468,#469,#470);
#319=DRAUGHTING_PRE_DEFINED_CURVE_FONT('continuous');
#320=COLOUR_RGB('',0.800000011920929,0.800000011920929,0.800000011920929);
#321=CARTESIAN_POINT('',(0.6,0.343796770528132,-2.8));
#322=VECTOR('',#471,1.0);
#323=SURFACE_SIDE_STYLE('',(#472));
#324=EDGE_LOOP('',(#473,#474,#475,#476));
#325=AXIS2_PLACEMENT_3D('',#477,#478,#479);
#326=DRAUGHTING_PRE_DEFINED_CURVE_FONT('continuous');
#327=COLOUR_RGB('',0.800000011920929,0.800000011920929,0.800000011920929);
#328=CARTESIAN_POINT('',(5.85620322947187,0.6,-2.8));
#329=VECTOR('',#480,1.0);
#330=SURFACE_SIDE_STYLE('',(#481));
#331=EDGE_LOOP('',(#482,#483,#484,#485));
#332=AXIS2_PLACEMENT_3D('',#486,#487,#488);
#333=DRAUGHTING_PRE_DEFINED_CURVE_FONT('continuous');
#334=COLOUR_RGB('',0.800000011920929,0.800000011920929,0.800000011920929);
#335=CARTESIAN_POINT('',(5.6,6.1999999999,0.0));
#336=VECTOR('',#489,1.0);
#337=PRE_DEFINED_MARKER('');
#338=COLOUR_RGB('',0.800000011920929,0.800000011920929,0.800000011920929);
#339=DRAUGHTING_PRE_DEFINED_CURVE_FONT('continuous');
#340=COLOUR_RGB('',0.800000011920929,0.800000011920929,0.800000011920929);
#341=CARTESIAN_POINT('',(0.6,0.0,0.0));
#342=VECTOR('',#490,1.0);
#343=PRE_DEFINED_MARKER('');
#344=COLOUR_RGB('',0.800000011920929,0.800000011920929,0.800000011920929);
#345=PRE_DEFINED_MARKER('');
#346=COLOUR_RGB('',0.800000011920929,0.800000011920929,0.800000011920929);
#347=DRAUGHTING_PRE_DEFINED_CURVE_FONT('continuous');
#348=COLOUR_RGB('',0.800000011920929,0.800000011920929,0.800000011920929);
#349=CARTESIAN_POINT('',(5.6,0.0,0.0));
#350=VECTOR('',#491,1.0);
#351=SURFACE_SIDE_STYLE('',(#492));
#352=EDGE_LOOP('',(#493,#494,#495,#496));
#353=AXIS2_PLACEMENT_3D('',#497,#498,#499);
#354=DRAUGHTING_PRE_DEFINED_CURVE_FONT('continuous');
#355=COLOUR_RGB('',0.800000011920929,0.800000011920929,0.800000011920929);
#356=AXIS2_PLACEMENT_3D('',#500,#501,#502);
#357=DRAUGHTING_PRE_DEFINED_CURVE_FONT('continuous');
#358=COLOUR_RGB('',0.800000011920929,0.800000011920929,0.800000011920929);
#359=CARTESIAN_POINT('',(5.6,6.2,0.0));
#360=VECTOR('',#503,1.0);
#361=PRE_DEFINED_MARKER('');
#362=COLOUR_RGB('',0.800000011920929,0.800000011920929,0.800000011920929);
#363=DRAUGHTING_PRE_DEFINED_CURVE_FONT('continuous');
#364=COLOUR_RGB('',0.800000011920929,0.800000011920929,0.800000011920929);
#365=AXIS2_PLACEMENT_3D('',#504,#505,#506);
#366=DRAUGHTING_PRE_DEFINED_CURVE_FONT('continuous');
#367=COLOUR_RGB('',0.800000011920929,0.800000011920929,0.800000011920929);
#368=CARTESIAN_POINT('',(6.2,5.6,0.0));
#369=VECTOR('',#507,1.0);
#370=DRAUGHTING_PRE_DEFINED_CURVE_FONT('continuous');
#371=COLOUR_RGB('',0.800000011920929,0.800000011920929,0.800000011920929);
#372=AXIS2_PLACEMENT_3D('',#508,#509,#510);
#373=DRAUGHTING_PRE_DEFINED_CURVE_FONT('continuous');
#374=COLOUR_RGB('',0.800000011920929,0.800000011920929,0.800000011920929);
#375=CARTESIAN_POINT('',(1.00000452363247E-010,5.6,0.0));
#376=VECTOR('',#511,1.0);
#377=DRAUGHTING_PRE_DEFINED_CURVE_FONT('continuous');
#378=COLOUR_RGB('',0.800000011920929,0.800000011920929,0.800000011920929);
#379=CARTESIAN_POINT('',(5.6,5.85620322947187,-2.8));
#380=VECTOR('',#512,1.0);
#381=DRAUGHTING_PRE_DEFINED_CURVE_FONT('continuous');
#382=COLOUR_RGB('',0.800000011920929,0.800000011920929,0.800000011920929);
#383=AXIS2_PLACEMENT_3D('',#513,#514,#515);
#384=PRE_DEFINED_MARKER('');
#385=COLOUR_RGB('',0.800000011920929,0.800000011920929,0.800000011920929);
#386=DRAUGHTING_PRE_DEFINED_CURVE_FONT('continuous');
#387=COLOUR_RGB('',0.800000011920929,0.800000011920929,0.800000011920929);
#388=CARTESIAN_POINT('',(6.2,0.6,0.0));
#389=VECTOR('',#516,1.0);
#390=PRE_DEFINED_MARKER('');
#391=COLOUR_RGB('',0.800000011920929,0.800000011920929,0.800000011920929);
#392=PRE_DEFINED_MARKER('');
#393=COLOUR_RGB('',0.800000011920929,0.800000011920929,0.800000011920929);
#394=DRAUGHTING_PRE_DEFINED_CURVE_FONT('continuous');
#395=COLOUR_RGB('',0.800000011920929,0.800000011920929,0.800000011920929);
#396=AXIS2_PLACEMENT_3D('',#517,#518,#519);
#397=DRAUGHTING_PRE_DEFINED_CURVE_FONT('continuous');
#398=COLOUR_RGB('',0.800000011920929,0.800000011920929,0.800000011920929);
#399=AXIS2_PLACEMENT_3D('',#520,#521,#522);
#400=DRAUGHTING_PRE_DEFINED_CURVE_FONT('continuous');
#401=COLOUR_RGB('',0.800000011920929,0.800000011920929,0.800000011920929);
#402=CARTESIAN_POINT('',(0.343796770528132,5.6,-2.8));
#403=VECTOR('',#523,1.0);
#404=DRAUGHTING_PRE_DEFINED_CURVE_FONT('continuous');
#405=COLOUR_RGB('',0.800000011920929,0.800000011920929,0.800000011920929);
#406=AXIS2_PLACEMENT_3D('',#524,#525,#526);
#407=SURFACE_SIDE_STYLE('',(#527));
#408=EDGE_LOOP('',(#528,#529,#530,#531));
#409=AXIS2_PLACEMENT_3D('',#532,#533,#534);
#410=SURFACE_SIDE_STYLE('',(#535));
#411=EDGE_LOOP('',(#536,#537,#538,#539));
#412=AXIS2_PLACEMENT_3D('',#540,#541,#542);
#413=DRAUGHTING_PRE_DEFINED_CURVE_FONT('continuous');
#414=COLOUR_RGB('',0.800000011920929,0.800000011920929,0.800000011920929);
#415=CARTESIAN_POINT('',(0.0,0.600000000000001,0.0));
#416=VECTOR('',#543,1.0);
#417=PRE_DEFINED_MARKER('');
#418=COLOUR_RGB('',0.800000011920929,0.800000011920929,0.800000011920929);
#419=PRE_DEFINED_MARKER('');
#420=COLOUR_RGB('',0.800000011920929,0.800000011920929,0.800000011920929);
#421=SURFACE_SIDE_STYLE('',(#544));
#422=SURFACE_SIDE_STYLE('',(#545));
#423=EDGE_LOOP('',(#546,#547,#548,#549,#550,#551,#552,#553));
#424=AXIS2_PLACEMENT_3D('',#554,#555,#556);
#425=SURFACE_SIDE_STYLE('',(#557));
#426=EDGE_LOOP('',(#558,#559,#560,#561));
#427=AXIS2_PLACEMENT_3D('',#562,#563,#564);
#428=PRE_DEFINED_MARKER('');
#429=COLOUR_RGB('',0.800000011920929,0.800000011920929,0.800000011920929);
#430=DRAUGHTING_PRE_DEFINED_CURVE_FONT('continuous');
#431=COLOUR_RGB('',0.800000011920929,0.800000011920929,0.800000011920929);
#432=CARTESIAN_POINT('',(6.1999999999,0.6,0.0));
#433=VECTOR('',#565,1.0);
#434=PRE_DEFINED_MARKER('');
#435=COLOUR_RGB('',0.800000011920929,0.800000011920929,0.800000011920929);
#436=PRE_DEFINED_MARKER('');
#437=COLOUR_RGB('',0.800000011920929,0.800000011920929,0.800000011920929);
#438=PRE_DEFINED_MARKER('');
#439=COLOUR_RGB('',0.800000011920929,0.800000011920929,0.800000011920929);
#440=PRE_DEFINED_MARKER('');
#441=COLOUR_RGB('',0.800000011920929,0.800000011920929,0.800000011920929);
#442=SURFACE_SIDE_STYLE('',(#566));
#443=EDGE_LOOP('',(#567,#568,#569,#570));
#444=AXIS2_PLACEMENT_3D('',#571,#572,#573);
#445=DRAUGHTING_PRE_DEFINED_CURVE_FONT('continuous');
#446=COLOUR_RGB('',0.800000011920929,0.800000011920929,0.800000011920929);
#447=CARTESIAN_POINT('',(0.6,6.2,0.0));
#448=VECTOR('',#574,1.0);
#449=PRE_DEFINED_MARKER('');
#450=COLOUR_RGB('',0.800000011920929,0.800000011920929,0.800000011920929);
#451=SURFACE_SIDE_STYLE('',(#575));
#452=EDGE_LOOP('',(#576,#577,#578,#579,#580,#581,#582,#583));
#453=AXIS2_PLACEMENT_3D('',#584,#585,#586);
#454=DRAUGHTING_PRE_DEFINED_CURVE_FONT('continuous');
#455=COLOUR_RGB('',0.800000011920929,0.800000011920929,0.800000011920929);
#456=AXIS2_PLACEMENT_3D('',#587,#588,#589);
#457=DRAUGHTING_PRE_DEFINED_CURVE_FONT('continuous');
#458=COLOUR_RGB('',0.800000011920929,0.800000011920929,0.800000011920929);
#459=CARTESIAN_POINT('',(0.6,0.0,0.0));
#460=VECTOR('',#590,1.0);
#462=DIRECTION('',(0.0,-1.0,0.0));
#463=SURFACE_STYLE_FILL_AREA(#591);
#464=ORIENTED_EDGE('',*,*,#85,.T.);
#465=ORIENTED_EDGE('',*,*,#111,.F.);
#466=ORIENTED_EDGE('',*,*,#123,.F.);
#467=ORIENTED_EDGE('',*,*,#155,.T.);
#468=CARTESIAN_POINT('',(6.1999999999,0.6,0.0));
#469=DIRECTION('',(0.99254615164561,-0.0,-0.121869343370226));
#470=DIRECTION('',(-0.0,-1.0,0.0));
#471=DIRECTION('',(1.0,0.0,0.0));
#472=SURFACE_STYLE_FILL_AREA(#592);
#473=ORIENTED_EDGE('',*,*,#131,.T.);
#474=ORIENTED_EDGE('',*,*,#89,.F.);
#475=ORIENTED_EDGE('',*,*,#103,.F.);
#476=ORIENTED_EDGE('',*,*,#111,.T.);
#477=CARTESIAN_POINT('',(5.5999999999,5.5999999999,0.0));
#478=DIRECTION('',(-0.0,-0.0,1.0));
#479=DIRECTION('',(1.0,1.66666680456728E-010,0.0));
#480=DIRECTION('',(0.0,1.0,0.0));
#481=SURFACE_STYLE_FILL_AREA(#593);
#482=ORIENTED_EDGE('',*,*,#113,.T.);
#483=ORIENTED_EDGE('',*,*,#93,.F.);
#484=ORIENTED_EDGE('',*,*,#119,.F.);
#485=ORIENTED_EDGE('',*,*,#141,.T.);
#486=CARTESIAN_POINT('',(0.6000000001,0.6000000001,0.0));
#487=DIRECTION('',(0.0,-0.0,1.0));
#488=DIRECTION('',(-1.0,-1.66666310382387E-010,0.0));
#489=DIRECTION('',(0.0,-0.121869343370226,-0.99254615164561));
#490=DIRECTION('',(0.0,0.121869343405147,-0.992546151641322));
#491=DIRECTION('',(-2.03110979890273E-011,0.121869343440069,-0.992546151637034));
#492=SURFACE_STYLE_FILL_AREA(#594);
#493=ORIENTED_EDGE('',*,*,#81,.T.);
#494=ORIENTED_EDGE('',*,*,#99,.F.);
#495=ORIENTED_EDGE('',*,*,#175,.F.);
#496=ORIENTED_EDGE('',*,*,#93,.T.);
#497=CARTESIAN_POINT('',(0.6,0.0,0.0));
#498=DIRECTION('',(-0.0,-0.992546151641322,-0.121869343405147));
#499=DIRECTION('',(-1.0,0.0,0.0));
#500=CARTESIAN_POINT('',(5.5999999999,5.5999999999,0.0));
#501=DIRECTION('',(0.0,-0.0,1.0));
#502=DIRECTION('',(1.0,1.66666680456728E-010,0.0));
#503=DIRECTION('',(-1.0,0.0,0.0));
#504=CARTESIAN_POINT('',(5.5999999999,0.6000000001,0.0));
#505=DIRECTION('',(0.0,0.0,1.0));
#506=DIRECTION('',(1.66666680456729E-010,-1.0,0.0));
#507=DIRECTION('',(-0.121869343440069,-2.03114128311961E-011,-0.992546151637034));
#508=CARTESIAN_POINT('',(0.6000000001,0.6000000001,-2.8));
#509=DIRECTION('',(0.0,0.0,1.0));
#510=DIRECTION('',(-1.0,-1.66666310382387E-010,0.0));
#511=DIRECTION('',(0.121869343370225,0.0,-0.99254615164561));
#512=DIRECTION('',(-1.0,0.0,0.0));
#513=CARTESIAN_POINT('',(0.6000000001,0.6000000001,0.0));
#514=DIRECTION('',(0.0,0.0,1.0));
#515=DIRECTION('',(-1.0,-1.66666310382387E-010,0.0));
#516=DIRECTION('',(0.0,1.0,0.0));
#517=CARTESIAN_POINT('',(5.5999999999,0.6000000001,-2.8));
#518=DIRECTION('',(0.0,0.0,1.0));
#519=DIRECTION('',(1.66666680456729E-010,-1.0,0.0));
#520=CARTESIAN_POINT('',(5.5999999999,5.5999999999,-2.8));
#521=DIRECTION('',(0.0,-0.0,1.0));
#522=DIRECTION('',(1.0,1.66666680456728E-010,0.0));
#523=DIRECTION('',(0.0,-1.0,0.0));
#524=CARTESIAN_POINT('',(0.6000000001,5.5999999999,0.0));
#525=DIRECTION('',(0.0,0.0,1.0));
#526=DIRECTION('',(-1.6666705053107E-010,1.0,0.0));
#527=SURFACE_STYLE_FILL_AREA(#595);
#528=ORIENTED_EDGE('',*,*,#117,.T.);
#529=ORIENTED_EDGE('',*,*,#167,.F.);
#530=ORIENTED_EDGE('',*,*,#105,.F.);
#531=ORIENTED_EDGE('',*,*,#89,.T.);
#532=CARTESIAN_POINT('',(5.6,6.1999999999,0.0));
#533=DIRECTION('',(0.0,0.99254615164561,-0.121869343370226));
#534=DIRECTION('',(1.0,-0.0,0.0));
#535=SURFACE_STYLE_FILL_AREA(#596);
#536=ORIENTED_EDGE('',*,*,#173,.T.);
#537=ORIENTED_EDGE('',*,*,#115,.F.);
#538=ORIENTED_EDGE('',*,*,#135,.F.);
#539=ORIENTED_EDGE('',*,*,#167,.T.);
#540=CARTESIAN_POINT('',(0.6000000001,5.5999999999,0.0));
#541=DIRECTION('',(-0.0,-0.0,1.0));
#542=DIRECTION('',(-1.6666705053107E-010,1.0,0.0));
#543=DIRECTION('',(0.121869343440069,2.03114915417382E-011,-0.992546151637034));
#544=SURFACE_STYLE_FILL_AREA(#597);
#545=SURFACE_STYLE_FILL_AREA(#598);
#546=ORIENTED_EDGE('',*,*,#129,.F.);
#547=ORIENTED_EDGE('',*,*,#81,.F.);
#548=ORIENTED_EDGE('',*,*,#113,.F.);
#549=ORIENTED_EDGE('',*,*,#133,.F.);
#550=ORIENTED_EDGE('',*,*,#173,.F.);
#551=ORIENTED_EDGE('',*,*,#117,.F.);
#552=ORIENTED_EDGE('',*,*,#131,.F.);
#553=ORIENTED_EDGE('',*,*,#85,.F.);
#554=CARTESIAN_POINT('',(3.1,3.1,-2.8));
#555=DIRECTION('',(0.0,0.0,1.0));
#556=DIRECTION('',(1.0,0.0,0.0));
#557=SURFACE_STYLE_FILL_AREA(#599);
#558=ORIENTED_EDGE('',*,*,#133,.T.);
#559=ORIENTED_EDGE('',*,*,#141,.F.);
#560=ORIENTED_EDGE('',*,*,#77,.F.);
#561=ORIENTED_EDGE('',*,*,#115,.T.);
#562=CARTESIAN_POINT('',(1.00000452363247E-010,5.6,0.0));
#563=DIRECTION('',(-0.99254615164561,0.0,-0.121869343370225));
#564=DIRECTION('',(0.0,1.0,0.0));
#565=DIRECTION('',(-0.121869343370226,0.0,-0.99254615164561));
#566=SURFACE_STYLE_FILL_AREA(#600);
#567=ORIENTED_EDGE('',*,*,#129,.T.);
#568=ORIENTED_EDGE('',*,*,#155,.F.);
#569=ORIENTED_EDGE('',*,*,#109,.F.);
#570=ORIENTED_EDGE('',*,*,#99,.T.);
#571=CARTESIAN_POINT('',(5.5999999999,0.6000000001,0.0));
#572=DIRECTION('',(-0.0,-0.0,1.0));
#573=DIRECTION('',(1.66666680456729E-010,-1.0,0.0));
#574=DIRECTION('',(2.03116489628226E-011,-0.121869343440069,-0.992546151637034));
#575=SURFACE_STYLE_FILL_AREA(#601);
#576=ORIENTED_EDGE('',*,*,#175,.T.);
#577=ORIENTED_EDGE('',*,*,#109,.T.);
#578=ORIENTED_EDGE('',*,*,#123,.T.);
#579=ORIENTED_EDGE('',*,*,#103,.T.);
#580=ORIENTED_EDGE('',*,*,#105,.T.);
#581=ORIENTED_EDGE('',*,*,#135,.T.);
#582=ORIENTED_EDGE('',*,*,#77,.T.);
#583=ORIENTED_EDGE('',*,*,#119,.T.);
#584=CARTESIAN_POINT('',(3.1,3.1,0.0));
#585=DIRECTION('',(0.0,0.0,1.0));
#586=DIRECTION('',(1.0,0.0,0.0));
#587=CARTESIAN_POINT('',(0.6000000001,5.5999999999,-2.8));
#588=DIRECTION('',(0.0,0.0,1.0));
#589=DIRECTION('',(-1.6666705053107E-010,1.0,0.0));
#590=DIRECTION('',(1.0,0.0,0.0));
#591=FILL_AREA_STYLE('',(#602));
#592=FILL_AREA_STYLE('',(#603));
#593=FILL_AREA_STYLE('',(#604));
#594=FILL_AREA_STYLE('',(#605));
#595=FILL_AREA_STYLE('',(#606));
#596=FILL_AREA_STYLE('',(#607));
#597=FILL_AREA_STYLE('',(#608));
#598=FILL_AREA_STYLE('',(#609));
#599=FILL_AREA_STYLE('',(#610));
#600=FILL_AREA_STYLE('',(#611));
#601=FILL_AREA_STYLE('',(#612));
#602=FILL_AREA_STYLE_COLOUR('',#613);
#603=FILL_AREA_STYLE_COLOUR('',#614);
#604=FILL_AREA_STYLE_COLOUR('',#615);
#605=FILL_AREA_STYLE_COLOUR('',#616);
#606=FILL_AREA_STYLE_COLOUR('',#617);
#607=FILL_AREA_STYLE_COLOUR('',#618);
#608=FILL_AREA_STYLE_COLOUR('',#619);
#609=FILL_AREA_STYLE_COLOUR('',#620);
#610=FILL_AREA_STYLE_COLOUR('',#621);
#611=FILL_AREA_STYLE_COLOUR('',#622);
#612=FILL_AREA_STYLE_COLOUR('',#623);
#613=COLOUR_RGB('',0.800000011920929,0.800000011920929,0.800000011920929);
#614=COLOUR_RGB('',0.800000011920929,0.800000011920929,0.800000011920929);
#615=COLOUR_RGB('',0.800000011920929,0.800000011920929,0.800000011920929);
#616=COLOUR_RGB('',0.800000011920929,0.800000011920929,0.800000011920929);
#617=COLOUR_RGB('',0.800000011920929,0.800000011920929,0.800000011920929);
#618=COLOUR_RGB('',0.800000011920929,0.800000011920929,0.800000011920929);
#619=COLOUR_RGB('',0.800000011920929,0.800000011920929,0.800000011920929);
#620=COLOUR_RGB('',0.800000011920929,0.800000011920929,0.800000011920929);
#621=COLOUR_RGB('',0.800000011920929,0.800000011920929,0.800000011920929);
#622=COLOUR_RGB('',0.800000011920929,0.800000011920929,0.800000011920929);
#623=COLOUR_RGB('',0.800000011920929,0.800000011920929,0.800000011920929);
#624=AXIS2_PLACEMENT_3D('PCS',#625,#626,#627);
#625=CARTESIAN_POINT('',(0.0,0.0,0.0));
#626=DIRECTION('',(0.0,0.0,1.0));
#627=DIRECTION('',(1.0,0.0,0.0));
#628=AXIS2_PLACEMENT_3D('MCS',#629,#630,#631);
#629=CARTESIAN_POINT('',(3.1,3.1,0.0));
#630=DIRECTION('',(0.0,0.0,1.0));
#631=DIRECTION('',(1.0,0.0,0.0));
#632=CONSTRUCTIVE_GEOMETRY_REPRESENTATION_RELATIONSHIP('coordinate systems',$,#65,#633);
#633=CONSTRUCTIVE_GEOMETRY_REPRESENTATION('coordinate systems',(#624,#628),#6);
ENDSEC;
END-ISO-10303-21;
