ISO-10303-21;
HEADER;
FILE_DESCRIPTION(('no description'),'unknown implementation level');
FILE_NAME('solidmVeT8BXj_ZLA9fq_ECQenwJy_U4_1.STP','  ',('CIMSOURCE GmbH'),('CADClick - KiM GmbH - www.kimweb.de'),'unknown preprocess','ACIS','unknown authorization');
FILE_SCHEMA(('automotive_design'));
ENDSEC;
DATA;
#1=MECHANICAL_DESIGN_GEOMETRIC_PRESENTATION_REPRESENTATION(' ',(#10,#11,#12,#13,#14,#15,#16,#17,#18,#19,#20,#21,#22,#23,#24,#25,#26,#27,#28,#29,#30,#31,#32,#33,#34,#35,#36,#37,#38,#39,#40,#41,#42,#43,#44,#45,#46,#47,#48,#49,#50,#51,#52,#53,#54,#55,#56,#57,#58,#59,#60),#6);
#2=PRODUCT_DEFINITION_CONTEXT('',#61,'design');
#3=APPLICATION_PROTOCOL_DEFINITION('INTERNATIONAL STANDARD','automotive_design',1994,#61);
#4=PRODUCT_CATEGORY_RELATIONSHIP('NONE','NONE',#62,#63);
#5=SHAPE_DEFINITION_REPRESENTATION(#64,#65);
#6= (GEOMETRIC_REPRESENTATION_CONTEXT(3)GLOBAL_UNCERTAINTY_ASSIGNED_CONTEXT((#68))GLOBAL_UNIT_ASSIGNED_CONTEXT((#70,#71,#72))REPRESENTATION_CONTEXT('NONE','WORKSPACE'));
#10=STYLED_ITEM('',(#74),#75);
#11=STYLED_ITEM('',(#76),#77);
#12=STYLED_ITEM('',(#78),#79);
#13=STYLED_ITEM('',(#80),#81);
#14=STYLED_ITEM('',(#82),#83);
#15=STYLED_ITEM('',(#84),#85);
#16=STYLED_ITEM('',(#86),#87);
#17=STYLED_ITEM('',(#88),#89);
#18=STYLED_ITEM('',(#90),#91);
#19=STYLED_ITEM('',(#92),#93);
#20=STYLED_ITEM('',(#94),#95);
#21=STYLED_ITEM('',(#96),#97);
#22=STYLED_ITEM('',(#98),#99);
#23=STYLED_ITEM('',(#100),#101);
#24=STYLED_ITEM('',(#102),#103);
#25=STYLED_ITEM('',(#104),#105);
#26=STYLED_ITEM('',(#106),#107);
#27=STYLED_ITEM('',(#108),#109);
#28=STYLED_ITEM('',(#110),#111);
#29=STYLED_ITEM('',(#112),#113);
#30=STYLED_ITEM('',(#114),#115);
#31=STYLED_ITEM('',(#116),#117);
#32=STYLED_ITEM('',(#118),#119);
#33=STYLED_ITEM('',(#120),#121);
#34=STYLED_ITEM('',(#122),#123);
#35=STYLED_ITEM('',(#124),#125);
#36=STYLED_ITEM('',(#126),#127);
#37=STYLED_ITEM('',(#128),#129);
#38=STYLED_ITEM('',(#130),#131);
#39=STYLED_ITEM('',(#132),#133);
#40=STYLED_ITEM('',(#134),#135);
#41=STYLED_ITEM('',(#136),#137);
#42=STYLED_ITEM('',(#138),#139);
#43=STYLED_ITEM('',(#140),#141);
#44=STYLED_ITEM('',(#142),#143);
#45=STYLED_ITEM('',(#144),#145);
#46=STYLED_ITEM('',(#146),#147);
#47=STYLED_ITEM('',(#148),#149);
#48=STYLED_ITEM('',(#150),#151);
#49=STYLED_ITEM('',(#152),#153);
#50=STYLED_ITEM('',(#154),#155);
#51=STYLED_ITEM('',(#156),#157);
#52=STYLED_ITEM('',(#158),#159);
#53=STYLED_ITEM('',(#160),#161);
#54=STYLED_ITEM('',(#162),#163);
#55=STYLED_ITEM('',(#164),#165);
#56=STYLED_ITEM('',(#166),#167);
#57=STYLED_ITEM('',(#168),#169);
#58=STYLED_ITEM('',(#170),#171);
#59=STYLED_ITEM('',(#172),#173);
#60=STYLED_ITEM('',(#174),#175);
#61=APPLICATION_CONTEXT(' ');
#62=PRODUCT_CATEGORY('part','NONE');
#63=PRODUCT_RELATED_PRODUCT_CATEGORY('detail',' ',(#176));
#64=PRODUCT_DEFINITION_SHAPE('NONE','NONE',#177);
#65=ADVANCED_BREP_SHAPE_REPRESENTATION('1',(#175,#178),#6);
#68=UNCERTAINTY_MEASURE_WITH_UNIT(LENGTH_MEASURE(1.0E-006),#70,'','');
#70= (CONVERSION_BASED_UNIT('MILLIMETRE',#181)LENGTH_UNIT()NAMED_UNIT(#184));
#71= (NAMED_UNIT(#186)PLANE_ANGLE_UNIT()SI_UNIT($,.RADIAN.));
#72= (NAMED_UNIT(#186)SOLID_ANGLE_UNIT()SI_UNIT($,.STERADIAN.));
#74=PRESENTATION_STYLE_ASSIGNMENT((#192));
#75=EDGE_CURVE('',#103,#125,#193,.T.);
#76=PRESENTATION_STYLE_ASSIGNMENT((#194));
#77=ADVANCED_FACE('',(#195),#196,.T.);
#78=PRESENTATION_STYLE_ASSIGNMENT((#197));
#79=EDGE_CURVE('',#113,#89,#198,.T.);
#80=PRESENTATION_STYLE_ASSIGNMENT((#199));
#81=ADVANCED_FACE('',(#200),#201,.T.);
#82=PRESENTATION_STYLE_ASSIGNMENT((#202));
#83=ADVANCED_FACE('',(#203),#204,.F.);
#84=PRESENTATION_STYLE_ASSIGNMENT((#205));
#85=EDGE_CURVE('',#125,#95,#206,.T.);
#86=PRESENTATION_STYLE_ASSIGNMENT((#207));
#87=EDGE_CURVE('',#141,#89,#208,.T.);
#88=PRESENTATION_STYLE_ASSIGNMENT((#209));
#89=VERTEX_POINT('',#210);
#90=PRESENTATION_STYLE_ASSIGNMENT((#211));
#91=EDGE_CURVE('',#117,#95,#212,.T.);
#92=PRESENTATION_STYLE_ASSIGNMENT((#213));
#93=EDGE_CURVE('',#131,#113,#214,.T.);
#94=PRESENTATION_STYLE_ASSIGNMENT((#215));
#95=VERTEX_POINT('',#216);
#96=PRESENTATION_STYLE_ASSIGNMENT((#217));
#97=VERTEX_POINT('',#218);
#98=PRESENTATION_STYLE_ASSIGNMENT((#219));
#99=EDGE_CURVE('',#95,#169,#220,.T.);
#100=PRESENTATION_STYLE_ASSIGNMENT((#221));
#101=EDGE_CURVE('',#157,#97,#222,.T.);
#102=PRESENTATION_STYLE_ASSIGNMENT((#223));
#103=VERTEX_POINT('',#224);
#104=PRESENTATION_STYLE_ASSIGNMENT((#225));
#105=VERTEX_POINT('',#226);
#106=PRESENTATION_STYLE_ASSIGNMENT((#227));
#107=EDGE_CURVE('',#171,#131,#228,.T.);
#108=PRESENTATION_STYLE_ASSIGNMENT((#229));
#109=EDGE_CURVE('',#131,#141,#230,.T.);
#110=PRESENTATION_STYLE_ASSIGNMENT((#231));
#111=EDGE_CURVE('',#153,#105,#232,.T.);
#112=PRESENTATION_STYLE_ASSIGNMENT((#233));
#113=VERTEX_POINT('',#234);
#114=PRESENTATION_STYLE_ASSIGNMENT((#235));
#115=ADVANCED_FACE('',(#236),#237,.T.);
#116=PRESENTATION_STYLE_ASSIGNMENT((#238));
#117=VERTEX_POINT('',#239);
#118=PRESENTATION_STYLE_ASSIGNMENT((#240));
#119=EDGE_CURVE('',#147,#169,#241,.T.);
#120=PRESENTATION_STYLE_ASSIGNMENT((#242));
#121=VERTEX_POINT('',#243);
#122=PRESENTATION_STYLE_ASSIGNMENT((#244));
#123=EDGE_CURVE('',#141,#103,#245,.T.);
#124=PRESENTATION_STYLE_ASSIGNMENT((#246));
#125=VERTEX_POINT('',#247);
#126=PRESENTATION_STYLE_ASSIGNMENT((#248));
#127=EDGE_CURVE('',#89,#125,#249,.T.);
#128=PRESENTATION_STYLE_ASSIGNMENT((#250));
#129=ADVANCED_FACE('',(#251),#252,.T.);
#130=PRESENTATION_STYLE_ASSIGNMENT((#253));
#131=VERTEX_POINT('',#254);
#132=PRESENTATION_STYLE_ASSIGNMENT((#255));
#133=EDGE_CURVE('',#147,#157,#256,.T.);
#134=PRESENTATION_STYLE_ASSIGNMENT((#257));
#135=ADVANCED_FACE('',(#258),#259,.T.);
#136=PRESENTATION_STYLE_ASSIGNMENT((#260));
#137=ADVANCED_FACE('',(#261),#262,.T.);
#138=PRESENTATION_STYLE_ASSIGNMENT((#263));
#139=ADVANCED_FACE('',(#264),#265,.T.);
#140=PRESENTATION_STYLE_ASSIGNMENT((#266));
#141=VERTEX_POINT('',#267);
#142=PRESENTATION_STYLE_ASSIGNMENT((#268));
#143=ADVANCED_FACE('',(#269),#270,.T.);
#144=PRESENTATION_STYLE_ASSIGNMENT((#271));
#145=EDGE_CURVE('',#103,#117,#272,.T.);
#146=PRESENTATION_STYLE_ASSIGNMENT((#273));
#147=VERTEX_POINT('',#274);
#148=PRESENTATION_STYLE_ASSIGNMENT((#275));
#149=EDGE_CURVE('',#117,#147,#276,.T.);
#150=PRESENTATION_STYLE_ASSIGNMENT((#277));
#151=ADVANCED_FACE('',(#278),#279,.T.);
#152=PRESENTATION_STYLE_ASSIGNMENT((#280));
#153=VERTEX_POINT('',#281);
#154=PRESENTATION_STYLE_ASSIGNMENT((#282));
#155=EDGE_CURVE('',#171,#105,#283,.T.);
#156=PRESENTATION_STYLE_ASSIGNMENT((#284));
#157=VERTEX_POINT('',#285);
#158=PRESENTATION_STYLE_ASSIGNMENT((#286));
#159=EDGE_CURVE('',#121,#171,#287,.T.);
#160=PRESENTATION_STYLE_ASSIGNMENT((#288));
#161=EDGE_CURVE('',#169,#97,#289,.T.);
#162=PRESENTATION_STYLE_ASSIGNMENT((#290));
#163=EDGE_CURVE('',#97,#153,#291,.T.);
#164=PRESENTATION_STYLE_ASSIGNMENT((#292));
#165=EDGE_CURVE('',#121,#153,#293,.T.);
#166=PRESENTATION_STYLE_ASSIGNMENT((#294));
#167=EDGE_CURVE('',#157,#121,#295,.T.);
#168=PRESENTATION_STYLE_ASSIGNMENT((#296));
#169=VERTEX_POINT('',#297);
#170=PRESENTATION_STYLE_ASSIGNMENT((#298));
#171=VERTEX_POINT('',#299);
#172=PRESENTATION_STYLE_ASSIGNMENT((#300));
#173=EDGE_CURVE('',#105,#113,#301,.T.);
#174=PRESENTATION_STYLE_ASSIGNMENT((#302));
#175=MANIFOLD_SOLID_BREP('1',#303);
#176=PRODUCT('1','1','PART-1-DESC',(#304));
#177=PRODUCT_DEFINITION('NONE','NONE',#305,#2);
#178=AXIS2_PLACEMENT_3D('',#306,#307,#308);
#181=LENGTH_MEASURE_WITH_UNIT(LENGTH_MEASURE(1.0),#309);
#184=DIMENSIONAL_EXPONENTS(1.0,0.0,0.0,0.0,0.0,0.0,0.0);
#186=DIMENSIONAL_EXPONENTS(0.0,0.0,0.0,0.0,0.0,0.0,0.0);
#192=CURVE_STYLE('',#310,POSITIVE_LENGTH_MEASURE(1.0E-006),#311);
#193=LINE('',#312,#313);
#194=SURFACE_STYLE_USAGE(.BOTH.,#314);
#195=FACE_OUTER_BOUND('',#315,.T.);
#196=PLANE('',#316);
#197=CURVE_STYLE('',#317,POSITIVE_LENGTH_MEASURE(1.0E-006),#318);
#198=CIRCLE('',#319,0.207089405110706);
#199=SURFACE_STYLE_USAGE(.BOTH.,#320);
#200=FACE_OUTER_BOUND('',#321,.T.);
#201=PLANE('',#322);
#202=SURFACE_STYLE_USAGE(.BOTH.,#323);
#203=FACE_OUTER_BOUND('',#324,.T.);
#204=PLANE('',#325);
#205=CURVE_STYLE('',#326,POSITIVE_LENGTH_MEASURE(1.0E-006),#327);
#206=CIRCLE('',#328,0.207089405110707);
#207=CURVE_STYLE('',#329,POSITIVE_LENGTH_MEASURE(1.0E-006),#330);
#208=LINE('',#331,#332);
#209=POINT_STYLE(' ',#333,POSITIVE_LENGTH_MEASURE(1.0E-006),#334);
#210=CARTESIAN_POINT('',(6.80708940511071,0.6,-3.2));
#211=CURVE_STYLE('',#335,POSITIVE_LENGTH_MEASURE(1.0E-006),#336);
#212=LINE('',#337,#338);
#213=CURVE_STYLE('',#339,POSITIVE_LENGTH_MEASURE(1.0E-006),#340);
#214=LINE('',#341,#342);
#215=POINT_STYLE(' ',#343,POSITIVE_LENGTH_MEASURE(1.0E-006),#344);
#216=CARTESIAN_POINT('',(6.6,6.80708940511071,-3.2));
#217=POINT_STYLE(' ',#345,POSITIVE_LENGTH_MEASURE(1.0E-006),#346);
#218=CARTESIAN_POINT('',(0.392910594889294,6.6,-3.2));
#219=CURVE_STYLE('',#347,POSITIVE_LENGTH_MEASURE(1.0E-006),#348);
#220=LINE('',#349,#350);
#221=CURVE_STYLE('',#351,POSITIVE_LENGTH_MEASURE(1.0E-006),#352);
#222=LINE('',#353,#354);
#223=POINT_STYLE(' ',#355,POSITIVE_LENGTH_MEASURE(1.0E-006),#356);
#224=CARTESIAN_POINT('',(7.2,6.6,0.0));
#225=POINT_STYLE(' ',#357,POSITIVE_LENGTH_MEASURE(1.0E-006),#358);
#226=CARTESIAN_POINT('',(0.6,0.392910594889294,-3.2));
#227=CURVE_STYLE('',#359,POSITIVE_LENGTH_MEASURE(1.0E-006),#360);
#228=LINE('',#361,#362);
#229=CURVE_STYLE('',#363,POSITIVE_LENGTH_MEASURE(1.0E-006),#364);
#230=CIRCLE('',#365,0.6);
#231=CURVE_STYLE('',#366,POSITIVE_LENGTH_MEASURE(1.0E-006),#367);
#232=CIRCLE('',#368,0.207089405110706);
#233=POINT_STYLE(' ',#369,POSITIVE_LENGTH_MEASURE(1.0E-006),#370);
#234=CARTESIAN_POINT('',(6.59999999993452,0.392910594989294,-3.2));
#235=SURFACE_STYLE_USAGE(.BOTH.,#371);
#236=FACE_OUTER_BOUND('',#372,.T.);
#237=CONICAL_SURFACE('',#373,0.6,0.122173047639603);
#238=POINT_STYLE(' ',#374,POSITIVE_LENGTH_MEASURE(1.0E-006),#375);
#239=CARTESIAN_POINT('',(6.6,7.1999999999,0.0));
#240=CURVE_STYLE('',#376,POSITIVE_LENGTH_MEASURE(1.0E-006),#377);
#241=LINE('',#378,#379);
#242=POINT_STYLE(' ',#380,POSITIVE_LENGTH_MEASURE(1.0E-006),#381);
#243=CARTESIAN_POINT('',(0.0,0.600000000000001,0.0));
#244=CURVE_STYLE('',#382,POSITIVE_LENGTH_MEASURE(1.0E-006),#383);
#245=LINE('',#384,#385);
#246=POINT_STYLE(' ',#386,POSITIVE_LENGTH_MEASURE(1.0E-006),#387);
#247=CARTESIAN_POINT('',(6.80708940501071,6.59999999993451,-3.2));
#248=CURVE_STYLE('',#388,POSITIVE_LENGTH_MEASURE(1.0E-006),#389);
#249=LINE('',#390,#391);
#250=SURFACE_STYLE_USAGE(.BOTH.,#392);
#251=FACE_OUTER_BOUND('',#393,.T.);
#252=CONICAL_SURFACE('',#394,0.6,0.122173047639603);
#253=POINT_STYLE(' ',#395,POSITIVE_LENGTH_MEASURE(1.0E-006),#396);
#254=CARTESIAN_POINT('',(6.6,0.0,0.0));
#255=CURVE_STYLE('',#397,POSITIVE_LENGTH_MEASURE(1.0E-006),#398);
#256=CIRCLE('',#399,0.6);
#257=SURFACE_STYLE_USAGE(.BOTH.,#400);
#258=FACE_OUTER_BOUND('',#401,.T.);
#259=CONICAL_SURFACE('',#402,0.6,0.122173047639603);
#260=SURFACE_STYLE_USAGE(.BOTH.,#403);
#261=FACE_OUTER_BOUND('',#404,.T.);
#262=PLANE('',#405);
#263=SURFACE_STYLE_USAGE(.BOTH.,#406);
#264=FACE_OUTER_BOUND('',#407,.T.);
#265=CONICAL_SURFACE('',#408,0.600000000000001,0.122173047639603);
#266=POINT_STYLE(' ',#409,POSITIVE_LENGTH_MEASURE(1.0E-006),#410);
#267=CARTESIAN_POINT('',(7.1999999999,0.6,0.0));
#268=SURFACE_STYLE_USAGE(.BOTH.,#411);
#269=FACE_OUTER_BOUND('',#412,.T.);
#270=PLANE('',#413);
#271=CURVE_STYLE('',#414,POSITIVE_LENGTH_MEASURE(1.0E-006),#415);
#272=CIRCLE('',#416,0.600000000000001);
#273=POINT_STYLE(' ',#417,POSITIVE_LENGTH_MEASURE(1.0E-006),#418);
#274=CARTESIAN_POINT('',(0.6,7.2,0.0));
#275=CURVE_STYLE('',#419,POSITIVE_LENGTH_MEASURE(1.0E-006),#420);
#276=LINE('',#421,#422);
#277=SURFACE_STYLE_USAGE(.BOTH.,#423);
#278=FACE_OUTER_BOUND('',#424,.T.);
#279=PLANE('',#425);
#280=POINT_STYLE(' ',#426,POSITIVE_LENGTH_MEASURE(1.0E-006),#427);
#281=CARTESIAN_POINT('',(0.392910594989294,0.600000000065485,-3.2));
#282=CURVE_STYLE('',#428,POSITIVE_LENGTH_MEASURE(1.0E-006),#429);
#283=LINE('',#430,#431);
#284=POINT_STYLE(' ',#432,POSITIVE_LENGTH_MEASURE(1.0E-006),#433);
#285=CARTESIAN_POINT('',(1.00000452363247E-010,6.6,0.0));
#286=CURVE_STYLE('',#434,POSITIVE_LENGTH_MEASURE(1.0E-006),#435);
#287=CIRCLE('',#436,0.6);
#288=CURVE_STYLE('',#437,POSITIVE_LENGTH_MEASURE(1.0E-006),#438);
#289=CIRCLE('',#439,0.207089405110706);
#290=CURVE_STYLE('',#440,POSITIVE_LENGTH_MEASURE(1.0E-006),#441);
#291=LINE('',#442,#443);
#292=CURVE_STYLE('',#444,POSITIVE_LENGTH_MEASURE(1.0E-006),#445);
#293=LINE('',#446,#447);
#294=CURVE_STYLE('',#448,POSITIVE_LENGTH_MEASURE(1.0E-006),#449);
#295=LINE('',#450,#451);
#296=POINT_STYLE(' ',#452,POSITIVE_LENGTH_MEASURE(1.0E-006),#453);
#297=CARTESIAN_POINT('',(0.600000000065485,6.80708940501071,-3.2));
#298=POINT_STYLE(' ',#454,POSITIVE_LENGTH_MEASURE(1.0E-006),#455);
#299=CARTESIAN_POINT('',(0.6,0.0,0.0));
#300=CURVE_STYLE('',#456,POSITIVE_LENGTH_MEASURE(1.0E-006),#457);
#301=LINE('',#458,#459);
#302=SURFACE_STYLE_USAGE(.BOTH.,#460);
#303=CLOSED_SHELL('',(#135,#77,#139,#143,#115,#81,#129,#137,#83,#151));
#304=PRODUCT_CONTEXT('',#61,'mechanical');
#305=PRODUCT_DEFINITION_FORMATION_WITH_SPECIFIED_SOURCE(' ','NONE',#176,.NOT_KNOWN.);
#306=CARTESIAN_POINT('',(0.0,0.0,0.0));
#307=DIRECTION('',(0.0,0.0,1.0));
#308=DIRECTION('',(1.0,0.0,0.0));
#309= (NAMED_UNIT(#184)LENGTH_UNIT()SI_UNIT(.MILLI.,.METRE.));
#310=DRAUGHTING_PRE_DEFINED_CURVE_FONT('continuous');
#311=COLOUR_RGB('',0.800000011920929,0.800000011920929,0.800000011920929);
#312=CARTESIAN_POINT('',(7.2,6.6,0.0));
#313=VECTOR('',#462,1.0);
#314=SURFACE_SIDE_STYLE('',(#463));
#315=EDGE_LOOP('',(#464,#465,#466,#467));
#316=AXIS2_PLACEMENT_3D('',#468,#469,#470);
#317=DRAUGHTING_PRE_DEFINED_CURVE_FONT('continuous');
#318=COLOUR_RGB('',0.800000011920929,0.800000011920929,0.800000011920929);
#319=AXIS2_PLACEMENT_3D('',#471,#472,#473);
#320=SURFACE_SIDE_STYLE('',(#474));
#321=EDGE_LOOP('',(#475,#476,#477,#478));
#322=AXIS2_PLACEMENT_3D('',#479,#480,#481);
#323=SURFACE_SIDE_STYLE('',(#482));
#324=EDGE_LOOP('',(#483,#484,#485,#486,#487,#488,#489,#490));
#325=AXIS2_PLACEMENT_3D('',#491,#492,#493);
#326=DRAUGHTING_PRE_DEFINED_CURVE_FONT('continuous');
#327=COLOUR_RGB('',0.800000011920929,0.800000011920929,0.800000011920929);
#328=AXIS2_PLACEMENT_3D('',#494,#495,#496);
#329=DRAUGHTING_PRE_DEFINED_CURVE_FONT('continuous');
#330=COLOUR_RGB('',0.800000011920929,0.800000011920929,0.800000011920929);
#331=CARTESIAN_POINT('',(7.1999999999,0.6,0.0));
#332=VECTOR('',#497,1.0);
#333=PRE_DEFINED_MARKER('');
#334=COLOUR_RGB('',0.800000011920929,0.800000011920929,0.800000011920929);
#335=DRAUGHTING_PRE_DEFINED_CURVE_FONT('continuous');
#336=COLOUR_RGB('',0.800000011920929,0.800000011920929,0.800000011920929);
#337=CARTESIAN_POINT('',(6.6,7.1999999999,0.0));
#338=VECTOR('',#498,1.0);
#339=DRAUGHTING_PRE_DEFINED_CURVE_FONT('continuous');
#340=COLOUR_RGB('',0.800000011920929,0.800000011920929,0.800000011920929);
#341=CARTESIAN_POINT('',(6.6,0.0,0.0));
#342=VECTOR('',#499,1.0);
#343=PRE_DEFINED_MARKER('');
#344=COLOUR_RGB('',0.800000011920929,0.800000011920929,0.800000011920929);
#345=PRE_DEFINED_MARKER('');
#346=COLOUR_RGB('',0.800000011920929,0.800000011920929,0.800000011920929);
#347=DRAUGHTING_PRE_DEFINED_CURVE_FONT('continuous');
#348=COLOUR_RGB('',0.800000011920929,0.800000011920929,0.800000011920929);
#349=CARTESIAN_POINT('',(6.6,6.80708940511071,-3.2));
#350=VECTOR('',#500,1.0);
#351=DRAUGHTING_PRE_DEFINED_CURVE_FONT('continuous');
#352=COLOUR_RGB('',0.800000011920929,0.800000011920929,0.800000011920929);
#353=CARTESIAN_POINT('',(1.00000452363247E-010,6.6,0.0));
#354=VECTOR('',#501,1.0);
#355=PRE_DEFINED_MARKER('');
#356=COLOUR_RGB('',0.800000011920929,0.800000011920929,0.800000011920929);
#357=PRE_DEFINED_MARKER('');
#358=COLOUR_RGB('',0.800000011920929,0.800000011920929,0.800000011920929);
#359=DRAUGHTING_PRE_DEFINED_CURVE_FONT('continuous');
#360=COLOUR_RGB('',0.800000011920929,0.800000011920929,0.800000011920929);
#361=CARTESIAN_POINT('',(0.6,0.0,0.0));
#362=VECTOR('',#502,1.0);
#363=DRAUGHTING_PRE_DEFINED_CURVE_FONT('continuous');
#364=COLOUR_RGB('',0.800000011920929,0.800000011920929,0.800000011920929);
#365=AXIS2_PLACEMENT_3D('',#503,#504,#505);
#366=DRAUGHTING_PRE_DEFINED_CURVE_FONT('continuous');
#367=COLOUR_RGB('',0.800000011920929,0.800000011920929,0.800000011920929);
#368=AXIS2_PLACEMENT_3D('',#506,#507,#508);
#369=PRE_DEFINED_MARKER('');
#370=COLOUR_RGB('',0.800000011920929,0.800000011920929,0.800000011920929);
#371=SURFACE_SIDE_STYLE('',(#509));
#372=EDGE_LOOP('',(#510,#511,#512,#513));
#373=AXIS2_PLACEMENT_3D('',#514,#515,#516);
#374=PRE_DEFINED_MARKER('');
#375=COLOUR_RGB('',0.800000011920929,0.800000011920929,0.800000011920929);
#376=DRAUGHTING_PRE_DEFINED_CURVE_FONT('continuous');
#377=COLOUR_RGB('',0.800000011920929,0.800000011920929,0.800000011920929);
#378=CARTESIAN_POINT('',(0.6,7.2,0.0));
#379=VECTOR('',#517,1.0);
#380=PRE_DEFINED_MARKER('');
#381=COLOUR_RGB('',0.800000011920929,0.800000011920929,0.800000011920929);
#382=DRAUGHTING_PRE_DEFINED_CURVE_FONT('continuous');
#383=COLOUR_RGB('',0.800000011920929,0.800000011920929,0.800000011920929);
#384=CARTESIAN_POINT('',(7.2,0.6,0.0));
#385=VECTOR('',#518,1.0);
#386=PRE_DEFINED_MARKER('');
#387=COLOUR_RGB('',0.800000011920929,0.800000011920929,0.800000011920929);
#388=DRAUGHTING_PRE_DEFINED_CURVE_FONT('continuous');
#389=COLOUR_RGB('',0.800000011920929,0.800000011920929,0.800000011920929);
#390=CARTESIAN_POINT('',(6.80708940511071,0.6,-3.2));
#391=VECTOR('',#519,1.0);
#392=SURFACE_SIDE_STYLE('',(#520));
#393=EDGE_LOOP('',(#521,#522,#523,#524));
#394=AXIS2_PLACEMENT_3D('',#525,#526,#527);
#395=PRE_DEFINED_MARKER('');
#396=COLOUR_RGB('',0.800000011920929,0.800000011920929,0.800000011920929);
#397=DRAUGHTING_PRE_DEFINED_CURVE_FONT('continuous');
#398=COLOUR_RGB('',0.800000011920929,0.800000011920929,0.800000011920929);
#399=AXIS2_PLACEMENT_3D('',#528,#529,#530);
#400=SURFACE_SIDE_STYLE('',(#531));
#401=EDGE_LOOP('',(#532,#533,#534,#535));
#402=AXIS2_PLACEMENT_3D('',#536,#537,#538);
#403=SURFACE_SIDE_STYLE('',(#539));
#404=EDGE_LOOP('',(#540,#541,#542,#543));
#405=AXIS2_PLACEMENT_3D('',#544,#545,#546);
#406=SURFACE_SIDE_STYLE('',(#547));
#407=EDGE_LOOP('',(#548,#549,#550,#551));
#408=AXIS2_PLACEMENT_3D('',#552,#553,#554);
#409=PRE_DEFINED_MARKER('');
#410=COLOUR_RGB('',0.800000011920929,0.800000011920929,0.800000011920929);
#411=SURFACE_SIDE_STYLE('',(#555));
#412=EDGE_LOOP('',(#556,#557,#558,#559));
#413=AXIS2_PLACEMENT_3D('',#560,#561,#562);
#414=DRAUGHTING_PRE_DEFINED_CURVE_FONT('continuous');
#415=COLOUR_RGB('',0.800000011920929,0.800000011920929,0.800000011920929);
#416=AXIS2_PLACEMENT_3D('',#563,#564,#565);
#417=PRE_DEFINED_MARKER('');
#418=COLOUR_RGB('',0.800000011920929,0.800000011920929,0.800000011920929);
#419=DRAUGHTING_PRE_DEFINED_CURVE_FONT('continuous');
#420=COLOUR_RGB('',0.800000011920929,0.800000011920929,0.800000011920929);
#421=CARTESIAN_POINT('',(6.6,7.2,0.0));
#422=VECTOR('',#566,1.0);
#423=SURFACE_SIDE_STYLE('',(#567));
#424=EDGE_LOOP('',(#568,#569,#570,#571,#572,#573,#574,#575));
#425=AXIS2_PLACEMENT_3D('',#576,#577,#578);
#426=PRE_DEFINED_MARKER('');
#427=COLOUR_RGB('',0.800000011920929,0.800000011920929,0.800000011920929);
#428=DRAUGHTING_PRE_DEFINED_CURVE_FONT('continuous');
#429=COLOUR_RGB('',0.800000011920929,0.800000011920929,0.800000011920929);
#430=CARTESIAN_POINT('',(0.6,0.0,0.0));
#431=VECTOR('',#579,1.0);
#432=PRE_DEFINED_MARKER('');
#433=COLOUR_RGB('',0.800000011920929,0.800000011920929,0.800000011920929);
#434=DRAUGHTING_PRE_DEFINED_CURVE_FONT('continuous');
#435=COLOUR_RGB('',0.800000011920929,0.800000011920929,0.800000011920929);
#436=AXIS2_PLACEMENT_3D('',#580,#581,#582);
#437=DRAUGHTING_PRE_DEFINED_CURVE_FONT('continuous');
#438=COLOUR_RGB('',0.800000011920929,0.800000011920929,0.800000011920929);
#439=AXIS2_PLACEMENT_3D('',#583,#584,#585);
#440=DRAUGHTING_PRE_DEFINED_CURVE_FONT('continuous');
#441=COLOUR_RGB('',0.800000011920929,0.800000011920929,0.800000011920929);
#442=CARTESIAN_POINT('',(0.392910594889294,6.6,-3.2));
#443=VECTOR('',#586,1.0);
#444=DRAUGHTING_PRE_DEFINED_CURVE_FONT('continuous');
#445=COLOUR_RGB('',0.800000011920929,0.800000011920929,0.800000011920929);
#446=CARTESIAN_POINT('',(0.0,0.600000000000001,0.0));
#447=VECTOR('',#587,1.0);
#448=DRAUGHTING_PRE_DEFINED_CURVE_FONT('continuous');
#449=COLOUR_RGB('',0.800000011920929,0.800000011920929,0.800000011920929);
#450=CARTESIAN_POINT('',(0.0,6.6,0.0));
#451=VECTOR('',#588,1.0);
#452=PRE_DEFINED_MARKER('');
#453=COLOUR_RGB('',0.800000011920929,0.800000011920929,0.800000011920929);
#454=PRE_DEFINED_MARKER('');
#455=COLOUR_RGB('',0.800000011920929,0.800000011920929,0.800000011920929);
#456=DRAUGHTING_PRE_DEFINED_CURVE_FONT('continuous');
#457=COLOUR_RGB('',0.800000011920929,0.800000011920929,0.800000011920929);
#458=CARTESIAN_POINT('',(0.6,0.392910594889294,-3.2));
#459=VECTOR('',#589,1.0);
#460=SURFACE_SIDE_STYLE('',(#590));
#462=DIRECTION('',(-0.121869343435704,-2.03116489628336E-011,-0.99254615163757));
#463=SURFACE_STYLE_FILL_AREA(#591);
#464=ORIENTED_EDGE('',*,*,#127,.T.);
#465=ORIENTED_EDGE('',*,*,#75,.F.);
#466=ORIENTED_EDGE('',*,*,#123,.F.);
#467=ORIENTED_EDGE('',*,*,#87,.T.);
#468=CARTESIAN_POINT('',(7.1999999999,0.6,0.0));
#469=DIRECTION('',(0.992546151645074,-0.0,-0.121869343374591));
#470=DIRECTION('',(-0.0,-1.0,0.0));
#471=CARTESIAN_POINT('',(6.5999999999,0.6000000001,-3.2));
#472=DIRECTION('',(0.0,0.0,1.0));
#473=DIRECTION('',(1.66666680456729E-010,-1.0,0.0));
#474=SURFACE_STYLE_FILL_AREA(#592);
#475=ORIENTED_EDGE('',*,*,#163,.T.);
#476=ORIENTED_EDGE('',*,*,#165,.F.);
#477=ORIENTED_EDGE('',*,*,#167,.F.);
#478=ORIENTED_EDGE('',*,*,#101,.T.);
#479=CARTESIAN_POINT('',(1.00000452363247E-010,6.6,0.0));
#480=DIRECTION('',(-0.992546151645074,0.0,-0.121869343374591));
#481=DIRECTION('',(0.0,1.0,0.0));
#482=SURFACE_STYLE_FILL_AREA(#593);
#483=ORIENTED_EDGE('',*,*,#79,.F.);
#484=ORIENTED_EDGE('',*,*,#173,.F.);
#485=ORIENTED_EDGE('',*,*,#111,.F.);
#486=ORIENTED_EDGE('',*,*,#163,.F.);
#487=ORIENTED_EDGE('',*,*,#161,.F.);
#488=ORIENTED_EDGE('',*,*,#99,.F.);
#489=ORIENTED_EDGE('',*,*,#85,.F.);
#490=ORIENTED_EDGE('',*,*,#127,.F.);
#491=CARTESIAN_POINT('',(3.6,3.6,-3.2));
#492=DIRECTION('',(0.0,0.0,1.0));
#493=DIRECTION('',(1.0,0.0,0.0));
#494=CARTESIAN_POINT('',(6.5999999999,6.5999999999,-3.2));
#495=DIRECTION('',(0.0,-0.0,1.0));
#496=DIRECTION('',(1.0,1.66666680456728E-010,0.0));
#497=DIRECTION('',(-0.121869343374591,0.0,-0.992546151645074));
#498=DIRECTION('',(0.0,-0.121869343374591,-0.992546151645074));
#499=DIRECTION('',(-2.03113734759359E-011,0.121869343435704,-0.99254615163757));
#500=DIRECTION('',(-1.0,0.0,0.0));
#501=DIRECTION('',(0.121869343374591,0.0,-0.992546151645074));
#502=DIRECTION('',(1.0,0.0,0.0));
#503=CARTESIAN_POINT('',(6.5999999999,0.6000000001,0.0));
#504=DIRECTION('',(0.0,0.0,1.0));
#505=DIRECTION('',(1.66666680456729E-010,-1.0,0.0));
#506=CARTESIAN_POINT('',(0.6000000001,0.6000000001,-3.2));
#507=DIRECTION('',(0.0,0.0,1.0));
#508=DIRECTION('',(-1.0,-1.66666310382387E-010,0.0));
#509=SURFACE_STYLE_FILL_AREA(#594);
#510=ORIENTED_EDGE('',*,*,#161,.T.);
#511=ORIENTED_EDGE('',*,*,#101,.F.);
#512=ORIENTED_EDGE('',*,*,#133,.F.);
#513=ORIENTED_EDGE('',*,*,#119,.T.);
#514=CARTESIAN_POINT('',(0.6000000001,6.5999999999,0.0));
#515=DIRECTION('',(-0.0,-0.0,1.0));
#516=DIRECTION('',(-1.6666705053107E-010,1.0,0.0));
#517=DIRECTION('',(2.03116489628336E-011,-0.121869343435704,-0.99254615163757));
#518=DIRECTION('',(0.0,1.0,0.0));
#519=DIRECTION('',(0.0,1.0,0.0));
#520=SURFACE_STYLE_FILL_AREA(#595);
#521=ORIENTED_EDGE('',*,*,#111,.T.);
#522=ORIENTED_EDGE('',*,*,#155,.F.);
#523=ORIENTED_EDGE('',*,*,#159,.F.);
#524=ORIENTED_EDGE('',*,*,#165,.T.);
#525=CARTESIAN_POINT('',(0.6000000001,0.6000000001,0.0));
#526=DIRECTION('',(0.0,-0.0,1.0));
#527=DIRECTION('',(-1.0,-1.66666310382387E-010,0.0));
#528=CARTESIAN_POINT('',(0.6000000001,6.5999999999,0.0));
#529=DIRECTION('',(0.0,0.0,1.0));
#530=DIRECTION('',(-1.6666705053107E-010,1.0,0.0));
#531=SURFACE_STYLE_FILL_AREA(#596);
#532=ORIENTED_EDGE('',*,*,#79,.T.);
#533=ORIENTED_EDGE('',*,*,#87,.F.);
#534=ORIENTED_EDGE('',*,*,#109,.F.);
#535=ORIENTED_EDGE('',*,*,#93,.T.);
#536=CARTESIAN_POINT('',(6.5999999999,0.6000000001,0.0));
#537=DIRECTION('',(-0.0,-0.0,1.0));
#538=DIRECTION('',(1.66666680456729E-010,-1.0,0.0));
#539=SURFACE_STYLE_FILL_AREA(#597);
#540=ORIENTED_EDGE('',*,*,#173,.T.);
#541=ORIENTED_EDGE('',*,*,#93,.F.);
#542=ORIENTED_EDGE('',*,*,#107,.F.);
#543=ORIENTED_EDGE('',*,*,#155,.T.);
#544=CARTESIAN_POINT('',(0.6,0.0,0.0));
#545=DIRECTION('',(-0.0,-0.992546151641322,-0.121869343405147));
#546=DIRECTION('',(-1.0,0.0,0.0));
#547=SURFACE_STYLE_FILL_AREA(#598);
#548=ORIENTED_EDGE('',*,*,#85,.T.);
#549=ORIENTED_EDGE('',*,*,#91,.F.);
#550=ORIENTED_EDGE('',*,*,#145,.F.);
#551=ORIENTED_EDGE('',*,*,#75,.T.);
#552=CARTESIAN_POINT('',(6.5999999999,6.5999999999,0.0));
#553=DIRECTION('',(-0.0,-0.0,1.0));
#554=DIRECTION('',(1.0,1.66666680456728E-010,0.0));
#555=SURFACE_STYLE_FILL_AREA(#599);
#556=ORIENTED_EDGE('',*,*,#99,.T.);
#557=ORIENTED_EDGE('',*,*,#119,.F.);
#558=ORIENTED_EDGE('',*,*,#149,.F.);
#559=ORIENTED_EDGE('',*,*,#91,.T.);
#560=CARTESIAN_POINT('',(6.6,7.1999999999,0.0));
#561=DIRECTION('',(0.0,0.992546151645074,-0.121869343374591));
#562=DIRECTION('',(1.0,-0.0,0.0));
#563=CARTESIAN_POINT('',(6.5999999999,6.5999999999,0.0));
#564=DIRECTION('',(0.0,-0.0,1.0));
#565=DIRECTION('',(1.0,1.66666680456728E-010,0.0));
#566=DIRECTION('',(-1.0,0.0,0.0));
#567=SURFACE_STYLE_FILL_AREA(#600);
#568=ORIENTED_EDGE('',*,*,#107,.T.);
#569=ORIENTED_EDGE('',*,*,#109,.T.);
#570=ORIENTED_EDGE('',*,*,#123,.T.);
#571=ORIENTED_EDGE('',*,*,#145,.T.);
#572=ORIENTED_EDGE('',*,*,#149,.T.);
#573=ORIENTED_EDGE('',*,*,#133,.T.);
#574=ORIENTED_EDGE('',*,*,#167,.T.);
#575=ORIENTED_EDGE('',*,*,#159,.T.);
#576=CARTESIAN_POINT('',(3.6,3.6,0.0));
#577=DIRECTION('',(0.0,0.0,1.0));
#578=DIRECTION('',(1.0,0.0,0.0));
#579=DIRECTION('',(0.0,0.121869343405147,-0.992546151641322));
#580=CARTESIAN_POINT('',(0.6000000001,0.6000000001,0.0));
#581=DIRECTION('',(0.0,0.0,1.0));
#582=DIRECTION('',(-1.0,-1.66666310382387E-010,0.0));
#583=CARTESIAN_POINT('',(0.6000000001,6.5999999999,-3.2));
#584=DIRECTION('',(0.0,0.0,1.0));
#585=DIRECTION('',(-1.6666705053107E-010,1.0,0.0));
#586=DIRECTION('',(0.0,-1.0,0.0));
#587=DIRECTION('',(0.121869343435704,2.03114767835225E-011,-0.99254615163757));
#588=DIRECTION('',(0.0,-1.0,0.0));
#589=DIRECTION('',(1.0,0.0,0.0));
#590=SURFACE_STYLE_FILL_AREA(#601);
#591=FILL_AREA_STYLE('',(#602));
#592=FILL_AREA_STYLE('',(#603));
#593=FILL_AREA_STYLE('',(#604));
#594=FILL_AREA_STYLE('',(#605));
#595=FILL_AREA_STYLE('',(#606));
#596=FILL_AREA_STYLE('',(#607));
#597=FILL_AREA_STYLE('',(#608));
#598=FILL_AREA_STYLE('',(#609));
#599=FILL_AREA_STYLE('',(#610));
#600=FILL_AREA_STYLE('',(#611));
#601=FILL_AREA_STYLE('',(#612));
#602=FILL_AREA_STYLE_COLOUR('',#613);
#603=FILL_AREA_STYLE_COLOUR('',#614);
#604=FILL_AREA_STYLE_COLOUR('',#615);
#605=FILL_AREA_STYLE_COLOUR('',#616);
#606=FILL_AREA_STYLE_COLOUR('',#617);
#607=FILL_AREA_STYLE_COLOUR('',#618);
#608=FILL_AREA_STYLE_COLOUR('',#619);
#609=FILL_AREA_STYLE_COLOUR('',#620);
#610=FILL_AREA_STYLE_COLOUR('',#621);
#611=FILL_AREA_STYLE_COLOUR('',#622);
#612=FILL_AREA_STYLE_COLOUR('',#623);
#613=COLOUR_RGB('',0.800000011920929,0.800000011920929,0.800000011920929);
#614=COLOUR_RGB('',0.800000011920929,0.800000011920929,0.800000011920929);
#615=COLOUR_RGB('',0.800000011920929,0.800000011920929,0.800000011920929);
#616=COLOUR_RGB('',0.800000011920929,0.800000011920929,0.800000011920929);
#617=COLOUR_RGB('',0.800000011920929,0.800000011920929,0.800000011920929);
#618=COLOUR_RGB('',0.800000011920929,0.800000011920929,0.800000011920929);
#619=COLOUR_RGB('',0.800000011920929,0.800000011920929,0.800000011920929);
#620=COLOUR_RGB('',0.800000011920929,0.800000011920929,0.800000011920929);
#621=COLOUR_RGB('',0.800000011920929,0.800000011920929,0.800000011920929);
#622=COLOUR_RGB('',0.800000011920929,0.800000011920929,0.800000011920929);
#623=COLOUR_RGB('',0.800000011920929,0.800000011920929,0.800000011920929);
#624=AXIS2_PLACEMENT_3D('PCS',#625,#626,#627);
#625=CARTESIAN_POINT('',(0.0,0.0,0.0));
#626=DIRECTION('',(0.0,0.0,1.0));
#627=DIRECTION('',(1.0,0.0,0.0));
#628=AXIS2_PLACEMENT_3D('MCS',#629,#630,#631);
#629=CARTESIAN_POINT('',(3.6,3.6,0.0));
#630=DIRECTION('',(0.0,0.0,1.0));
#631=DIRECTION('',(1.0,0.0,0.0));
#632=CONSTRUCTIVE_GEOMETRY_REPRESENTATION_RELATIONSHIP('coordinate systems',$,#65,#633);
#633=CONSTRUCTIVE_GEOMETRY_REPRESENTATION('coordinate systems',(#624,#628),#6);
ENDSEC;
END-ISO-10303-21;
