ISO-10303-21;
HEADER;
FILE_DESCRIPTION(('no description'),'unknown implementation level');
FILE_NAME('solidz4dN7JZ9UxNTgLYGR9H42nbm7MU_1.STP','  ',('CIMSOURCE GmbH'),('CADClick - KiM GmbH - www.kimweb.de'),'unknown preprocess','ACIS','unknown authorization');
FILE_SCHEMA(('automotive_design'));
ENDSEC;
DATA;
#1=MECHANICAL_DESIGN_GEOMETRIC_PRESENTATION_REPRESENTATION(' ',(#10,#11,#12,#13,#14,#15,#16,#17,#18,#19,#20,#21,#22,#23,#24,#25,#26,#27,#28,#29,#30,#31,#32,#33,#34,#35,#36,#37,#38,#39,#40,#41,#42,#43,#44,#45,#46,#47,#48,#49,#50,#51,#52,#53,#54,#55,#56,#57,#58,#59,#60),#6);
#2=PRODUCT_DEFINITION_CONTEXT('',#61,'design');
#3=APPLICATION_PROTOCOL_DEFINITION('INTERNATIONAL STANDARD','automotive_design',1994,#61);
#4=PRODUCT_CATEGORY_RELATIONSHIP('NONE','NONE',#62,#63);
#5=SHAPE_DEFINITION_REPRESENTATION(#64,#65);
#6= (GEOMETRIC_REPRESENTATION_CONTEXT(3)GLOBAL_UNCERTAINTY_ASSIGNED_CONTEXT((#68))GLOBAL_UNIT_ASSIGNED_CONTEXT((#70,#71,#72))REPRESENTATION_CONTEXT('NONE','WORKSPACE'));
#10=STYLED_ITEM('',(#74),#75);
#11=STYLED_ITEM('',(#76),#77);
#12=STYLED_ITEM('',(#78),#79);
#13=STYLED_ITEM('',(#80),#81);
#14=STYLED_ITEM('',(#82),#83);
#15=STYLED_ITEM('',(#84),#85);
#16=STYLED_ITEM('',(#86),#87);
#17=STYLED_ITEM('',(#88),#89);
#18=STYLED_ITEM('',(#90),#91);
#19=STYLED_ITEM('',(#92),#93);
#20=STYLED_ITEM('',(#94),#95);
#21=STYLED_ITEM('',(#96),#97);
#22=STYLED_ITEM('',(#98),#99);
#23=STYLED_ITEM('',(#100),#101);
#24=STYLED_ITEM('',(#102),#103);
#25=STYLED_ITEM('',(#104),#105);
#26=STYLED_ITEM('',(#106),#107);
#27=STYLED_ITEM('',(#108),#109);
#28=STYLED_ITEM('',(#110),#111);
#29=STYLED_ITEM('',(#112),#113);
#30=STYLED_ITEM('',(#114),#115);
#31=STYLED_ITEM('',(#116),#117);
#32=STYLED_ITEM('',(#118),#119);
#33=STYLED_ITEM('',(#120),#121);
#34=STYLED_ITEM('',(#122),#123);
#35=STYLED_ITEM('',(#124),#125);
#36=STYLED_ITEM('',(#126),#127);
#37=STYLED_ITEM('',(#128),#129);
#38=STYLED_ITEM('',(#130),#131);
#39=STYLED_ITEM('',(#132),#133);
#40=STYLED_ITEM('',(#134),#135);
#41=STYLED_ITEM('',(#136),#137);
#42=STYLED_ITEM('',(#138),#139);
#43=STYLED_ITEM('',(#140),#141);
#44=STYLED_ITEM('',(#142),#143);
#45=STYLED_ITEM('',(#144),#145);
#46=STYLED_ITEM('',(#146),#147);
#47=STYLED_ITEM('',(#148),#149);
#48=STYLED_ITEM('',(#150),#151);
#49=STYLED_ITEM('',(#152),#153);
#50=STYLED_ITEM('',(#154),#155);
#51=STYLED_ITEM('',(#156),#157);
#52=STYLED_ITEM('',(#158),#159);
#53=STYLED_ITEM('',(#160),#161);
#54=STYLED_ITEM('',(#162),#163);
#55=STYLED_ITEM('',(#164),#165);
#56=STYLED_ITEM('',(#166),#167);
#57=STYLED_ITEM('',(#168),#169);
#58=STYLED_ITEM('',(#170),#171);
#59=STYLED_ITEM('',(#172),#173);
#60=STYLED_ITEM('',(#174),#175);
#61=APPLICATION_CONTEXT(' ');
#62=PRODUCT_CATEGORY('part','NONE');
#63=PRODUCT_RELATED_PRODUCT_CATEGORY('detail',' ',(#176));
#64=PRODUCT_DEFINITION_SHAPE('NONE','NONE',#177);
#65=ADVANCED_BREP_SHAPE_REPRESENTATION('1',(#165,#178),#6);
#68=UNCERTAINTY_MEASURE_WITH_UNIT(LENGTH_MEASURE(1.0E-006),#70,'','');
#70= (CONVERSION_BASED_UNIT('MILLIMETRE',#181)LENGTH_UNIT()NAMED_UNIT(#184));
#71= (NAMED_UNIT(#186)PLANE_ANGLE_UNIT()SI_UNIT($,.RADIAN.));
#72= (NAMED_UNIT(#186)SOLID_ANGLE_UNIT()SI_UNIT($,.STERADIAN.));
#74=PRESENTATION_STYLE_ASSIGNMENT((#192));
#75=ADVANCED_FACE('',(#193),#194,.F.);
#76=PRESENTATION_STYLE_ASSIGNMENT((#195));
#77=EDGE_CURVE('',#161,#133,#196,.T.);
#78=PRESENTATION_STYLE_ASSIGNMENT((#197));
#79=EDGE_CURVE('',#175,#139,#198,.T.);
#80=PRESENTATION_STYLE_ASSIGNMENT((#199));
#81=VERTEX_POINT('',#200);
#82=PRESENTATION_STYLE_ASSIGNMENT((#201));
#83=ADVANCED_FACE('',(#202),#203,.T.);
#84=PRESENTATION_STYLE_ASSIGNMENT((#204));
#85=ADVANCED_FACE('',(#205),#206,.T.);
#86=PRESENTATION_STYLE_ASSIGNMENT((#207));
#87=EDGE_CURVE('',#139,#105,#208,.T.);
#88=PRESENTATION_STYLE_ASSIGNMENT((#209));
#89=VERTEX_POINT('',#210);
#90=PRESENTATION_STYLE_ASSIGNMENT((#211));
#91=EDGE_CURVE('',#167,#81,#212,.T.);
#92=PRESENTATION_STYLE_ASSIGNMENT((#213));
#93=ADVANCED_FACE('',(#214),#215,.T.);
#94=PRESENTATION_STYLE_ASSIGNMENT((#216));
#95=EDGE_CURVE('',#105,#81,#217,.T.);
#96=PRESENTATION_STYLE_ASSIGNMENT((#218));
#97=EDGE_CURVE('',#109,#119,#219,.T.);
#98=PRESENTATION_STYLE_ASSIGNMENT((#220));
#99=ADVANCED_FACE('',(#221),#222,.T.);
#100=PRESENTATION_STYLE_ASSIGNMENT((#223));
#101=VERTEX_POINT('',#224);
#102=PRESENTATION_STYLE_ASSIGNMENT((#225));
#103=EDGE_CURVE('',#89,#173,#226,.T.);
#104=PRESENTATION_STYLE_ASSIGNMENT((#227));
#105=VERTEX_POINT('',#228);
#106=PRESENTATION_STYLE_ASSIGNMENT((#229));
#107=ADVANCED_FACE('',(#230),#231,.T.);
#108=PRESENTATION_STYLE_ASSIGNMENT((#232));
#109=VERTEX_POINT('',#233);
#110=PRESENTATION_STYLE_ASSIGNMENT((#234));
#111=EDGE_CURVE('',#101,#167,#235,.T.);
#112=PRESENTATION_STYLE_ASSIGNMENT((#236));
#113=EDGE_CURVE('',#163,#101,#237,.T.);
#114=PRESENTATION_STYLE_ASSIGNMENT((#238));
#115=EDGE_CURVE('',#81,#119,#239,.T.);
#116=PRESENTATION_STYLE_ASSIGNMENT((#240));
#117=EDGE_CURVE('',#173,#127,#241,.T.);
#118=PRESENTATION_STYLE_ASSIGNMENT((#242));
#119=VERTEX_POINT('',#243);
#120=PRESENTATION_STYLE_ASSIGNMENT((#244));
#121=ADVANCED_FACE('',(#245),#246,.T.);
#122=PRESENTATION_STYLE_ASSIGNMENT((#247));
#123=VERTEX_POINT('',#248);
#124=PRESENTATION_STYLE_ASSIGNMENT((#249));
#125=ADVANCED_FACE('',(#250),#251,.T.);
#126=PRESENTATION_STYLE_ASSIGNMENT((#252));
#127=VERTEX_POINT('',#253);
#128=PRESENTATION_STYLE_ASSIGNMENT((#254));
#129=EDGE_CURVE('',#127,#163,#255,.T.);
#130=PRESENTATION_STYLE_ASSIGNMENT((#256));
#131=ADVANCED_FACE('',(#257),#258,.T.);
#132=PRESENTATION_STYLE_ASSIGNMENT((#259));
#133=VERTEX_POINT('',#260);
#134=PRESENTATION_STYLE_ASSIGNMENT((#261));
#135=EDGE_CURVE('',#119,#133,#262,.T.);
#136=PRESENTATION_STYLE_ASSIGNMENT((#263));
#137=EDGE_CURVE('',#123,#163,#264,.T.);
#138=PRESENTATION_STYLE_ASSIGNMENT((#265));
#139=VERTEX_POINT('',#266);
#140=PRESENTATION_STYLE_ASSIGNMENT((#267));
#141=EDGE_CURVE('',#139,#167,#268,.T.);
#142=PRESENTATION_STYLE_ASSIGNMENT((#269));
#143=EDGE_CURVE('',#89,#145,#270,.T.);
#144=PRESENTATION_STYLE_ASSIGNMENT((#271));
#145=VERTEX_POINT('',#272);
#146=PRESENTATION_STYLE_ASSIGNMENT((#273));
#147=EDGE_CURVE('',#109,#161,#274,.T.);
#148=PRESENTATION_STYLE_ASSIGNMENT((#275));
#149=EDGE_CURVE('',#161,#89,#276,.T.);
#150=PRESENTATION_STYLE_ASSIGNMENT((#277));
#151=EDGE_CURVE('',#145,#123,#278,.T.);
#152=PRESENTATION_STYLE_ASSIGNMENT((#279));
#153=ADVANCED_FACE('',(#280),#281,.T.);
#154=PRESENTATION_STYLE_ASSIGNMENT((#282));
#155=EDGE_CURVE('',#175,#101,#283,.T.);
#156=PRESENTATION_STYLE_ASSIGNMENT((#284));
#157=EDGE_CURVE('',#105,#109,#285,.T.);
#158=PRESENTATION_STYLE_ASSIGNMENT((#286));
#159=EDGE_CURVE('',#127,#175,#287,.T.);
#160=PRESENTATION_STYLE_ASSIGNMENT((#288));
#161=VERTEX_POINT('',#289);
#162=PRESENTATION_STYLE_ASSIGNMENT((#290));
#163=VERTEX_POINT('',#291);
#164=PRESENTATION_STYLE_ASSIGNMENT((#292));
#165=MANIFOLD_SOLID_BREP('1',#293);
#166=PRESENTATION_STYLE_ASSIGNMENT((#294));
#167=VERTEX_POINT('',#295);
#168=PRESENTATION_STYLE_ASSIGNMENT((#296));
#169=EDGE_CURVE('',#173,#123,#297,.T.);
#170=PRESENTATION_STYLE_ASSIGNMENT((#298));
#171=EDGE_CURVE('',#133,#145,#299,.T.);
#172=PRESENTATION_STYLE_ASSIGNMENT((#300));
#173=VERTEX_POINT('',#301);
#174=PRESENTATION_STYLE_ASSIGNMENT((#302));
#175=VERTEX_POINT('',#303);
#176=PRODUCT('1','1','PART-1-DESC',(#304));
#177=PRODUCT_DEFINITION('NONE','NONE',#305,#2);
#178=AXIS2_PLACEMENT_3D('',#306,#307,#308);
#181=LENGTH_MEASURE_WITH_UNIT(LENGTH_MEASURE(1.0),#309);
#184=DIMENSIONAL_EXPONENTS(1.0,0.0,0.0,0.0,0.0,0.0,0.0);
#186=DIMENSIONAL_EXPONENTS(0.0,0.0,0.0,0.0,0.0,0.0,0.0);
#192=SURFACE_STYLE_USAGE(.BOTH.,#310);
#193=FACE_OUTER_BOUND('',#311,.T.);
#194=PLANE('',#312);
#195=CURVE_STYLE('',#313,POSITIVE_LENGTH_MEASURE(1.0E-006),#314);
#196=LINE('',#315,#316);
#197=CURVE_STYLE('',#317,POSITIVE_LENGTH_MEASURE(1.0E-006),#318);
#198=CIRCLE('',#319,0.800000000000006);
#199=POINT_STYLE(' ',#320,POSITIVE_LENGTH_MEASURE(1.0E-006),#321);
#200=CARTESIAN_POINT('',(0.800000000064465,9.4843048441078,-4.2));
#201=SURFACE_STYLE_USAGE(.BOTH.,#322);
#202=FACE_OUTER_BOUND('',#323,.T.);
#203=PLANE('',#324);
#204=SURFACE_STYLE_USAGE(.BOTH.,#325);
#205=FACE_OUTER_BOUND('',#326,.T.);
#206=PLANE('',#327);
#207=CURVE_STYLE('',#328,POSITIVE_LENGTH_MEASURE(1.0E-006),#329);
#208=LINE('',#330,#331);
#209=POINT_STYLE(' ',#332,POSITIVE_LENGTH_MEASURE(1.0E-006),#333);
#210=CARTESIAN_POINT('',(0.8,0.0,0.0));
#211=CURVE_STYLE('',#334,POSITIVE_LENGTH_MEASURE(1.0E-006),#335);
#212=LINE('',#336,#337);
#213=SURFACE_STYLE_USAGE(.BOTH.,#338);
#214=FACE_OUTER_BOUND('',#339,.T.);
#215=PLANE('',#340);
#216=CURVE_STYLE('',#341,POSITIVE_LENGTH_MEASURE(1.0E-006),#342);
#217=LINE('',#343,#344);
#218=CURVE_STYLE('',#345,POSITIVE_LENGTH_MEASURE(1.0E-006),#346);
#219=LINE('',#347,#348);
#220=SURFACE_STYLE_USAGE(.BOTH.,#349);
#221=FACE_OUTER_BOUND('',#350,.T.);
#222=CONICAL_SURFACE('',#351,0.8,0.122173047639603);
#223=POINT_STYLE(' ',#352,POSITIVE_LENGTH_MEASURE(1.0E-006),#353);
#224=CARTESIAN_POINT('',(9.4843048441078,9.19999999993554,-4.2));
#225=CURVE_STYLE('',#354,POSITIVE_LENGTH_MEASURE(1.0E-006),#355);
#226=LINE('',#356,#357);
#227=POINT_STYLE(' ',#358,POSITIVE_LENGTH_MEASURE(1.0E-006),#359);
#228=CARTESIAN_POINT('',(0.800000000000001,10.0,0.0));
#229=SURFACE_STYLE_USAGE(.BOTH.,#360);
#230=FACE_OUTER_BOUND('',#361,.T.);
#231=CONICAL_SURFACE('',#362,0.800000000000006,0.122173047639603);
#232=POINT_STYLE(' ',#363,POSITIVE_LENGTH_MEASURE(1.0E-006),#364);
#233=CARTESIAN_POINT('',(1.00000341340944E-010,9.2,0.0));
#234=CURVE_STYLE('',#365,POSITIVE_LENGTH_MEASURE(1.0E-006),#366);
#235=CIRCLE('',#367,0.284304844207808);
#236=CURVE_STYLE('',#368,POSITIVE_LENGTH_MEASURE(1.0E-006),#369);
#237=LINE('',#370,#371);
#238=CURVE_STYLE('',#372,POSITIVE_LENGTH_MEASURE(1.0E-006),#373);
#239=CIRCLE('',#374,0.284304844207806);
#240=CURVE_STYLE('',#375,POSITIVE_LENGTH_MEASURE(1.0E-006),#376);
#241=CIRCLE('',#377,0.8);
#242=POINT_STYLE(' ',#378,POSITIVE_LENGTH_MEASURE(1.0E-006),#379);
#243=CARTESIAN_POINT('',(0.515695155792198,9.2,-4.2));
#244=SURFACE_STYLE_USAGE(.BOTH.,#380);
#245=FACE_OUTER_BOUND('',#381,.T.);
#246=CONICAL_SURFACE('',#382,0.800000000000004,0.122173047639603);
#247=POINT_STYLE(' ',#383,POSITIVE_LENGTH_MEASURE(1.0E-006),#384);
#248=CARTESIAN_POINT('',(9.19999999993554,0.515695155892198,-4.2));
#249=SURFACE_STYLE_USAGE(.BOTH.,#385);
#250=FACE_OUTER_BOUND('',#386,.T.);
#251=CONICAL_SURFACE('',#387,0.8,0.122173047639603);
#252=POINT_STYLE(' ',#388,POSITIVE_LENGTH_MEASURE(1.0E-006),#389);
#253=CARTESIAN_POINT('',(9.9999999999,0.8,0.0));
#254=CURVE_STYLE('',#390,POSITIVE_LENGTH_MEASURE(1.0E-006),#391);
#255=LINE('',#392,#393);
#256=SURFACE_STYLE_USAGE(.BOTH.,#394);
#257=FACE_OUTER_BOUND('',#395,.T.);
#258=PLANE('',#396);
#259=POINT_STYLE(' ',#397,POSITIVE_LENGTH_MEASURE(1.0E-006),#398);
#260=CARTESIAN_POINT('',(0.515695155892198,0.800000000064462,-4.2));
#261=CURVE_STYLE('',#399,POSITIVE_LENGTH_MEASURE(1.0E-006),#400);
#262=LINE('',#401,#402);
#263=CURVE_STYLE('',#403,POSITIVE_LENGTH_MEASURE(1.0E-006),#404);
#264=CIRCLE('',#405,0.284304844207802);
#265=POINT_STYLE(' ',#406,POSITIVE_LENGTH_MEASURE(1.0E-006),#407);
#266=CARTESIAN_POINT('',(9.2,9.9999999999,0.0));
#267=CURVE_STYLE('',#408,POSITIVE_LENGTH_MEASURE(1.0E-006),#409);
#268=LINE('',#410,#411);
#269=CURVE_STYLE('',#412,POSITIVE_LENGTH_MEASURE(1.0E-006),#413);
#270=LINE('',#414,#415);
#271=POINT_STYLE(' ',#416,POSITIVE_LENGTH_MEASURE(1.0E-006),#417);
#272=CARTESIAN_POINT('',(0.8,0.515695155792198,-4.2));
#273=CURVE_STYLE('',#418,POSITIVE_LENGTH_MEASURE(1.0E-006),#419);
#274=LINE('',#420,#421);
#275=CURVE_STYLE('',#422,POSITIVE_LENGTH_MEASURE(1.0E-006),#423);
#276=CIRCLE('',#424,0.8);
#277=CURVE_STYLE('',#425,POSITIVE_LENGTH_MEASURE(1.0E-006),#426);
#278=LINE('',#427,#428);
#279=SURFACE_STYLE_USAGE(.BOTH.,#429);
#280=FACE_OUTER_BOUND('',#430,.T.);
#281=PLANE('',#431);
#282=CURVE_STYLE('',#432,POSITIVE_LENGTH_MEASURE(1.0E-006),#433);
#283=LINE('',#434,#435);
#284=CURVE_STYLE('',#436,POSITIVE_LENGTH_MEASURE(1.0E-006),#437);
#285=CIRCLE('',#438,0.800000000000004);
#286=CURVE_STYLE('',#439,POSITIVE_LENGTH_MEASURE(1.0E-006),#440);
#287=LINE('',#441,#442);
#288=POINT_STYLE(' ',#443,POSITIVE_LENGTH_MEASURE(1.0E-006),#444);
#289=CARTESIAN_POINT('',(0.0,0.800000000000001,0.0));
#290=POINT_STYLE(' ',#445,POSITIVE_LENGTH_MEASURE(1.0E-006),#446);
#291=CARTESIAN_POINT('',(9.4843048442078,0.8,-4.2));
#292=SURFACE_STYLE_USAGE(.BOTH.,#447);
#293=CLOSED_SHELL('',(#99,#85,#107,#83,#121,#131,#125,#93,#75,#153));
#294=POINT_STYLE(' ',#448,POSITIVE_LENGTH_MEASURE(1.0E-006),#449);
#295=CARTESIAN_POINT('',(9.2,9.4843048442078,-4.2));
#296=CURVE_STYLE('',#450,POSITIVE_LENGTH_MEASURE(1.0E-006),#451);
#297=LINE('',#452,#453);
#298=CURVE_STYLE('',#454,POSITIVE_LENGTH_MEASURE(1.0E-006),#455);
#299=CIRCLE('',#456,0.284304844207802);
#300=POINT_STYLE(' ',#457,POSITIVE_LENGTH_MEASURE(1.0E-006),#458);
#301=CARTESIAN_POINT('',(9.2,0.0,0.0));
#302=POINT_STYLE(' ',#459,POSITIVE_LENGTH_MEASURE(1.0E-006),#460);
#303=CARTESIAN_POINT('',(10.0,9.2,0.0));
#304=PRODUCT_CONTEXT('',#61,'mechanical');
#305=PRODUCT_DEFINITION_FORMATION_WITH_SPECIFIED_SOURCE(' ','NONE',#176,.NOT_KNOWN.);
#306=CARTESIAN_POINT('',(0.0,0.0,0.0));
#307=DIRECTION('',(0.0,0.0,1.0));
#308=DIRECTION('',(1.0,0.0,0.0));
#309= (NAMED_UNIT(#184)LENGTH_UNIT()SI_UNIT(.MILLI.,.METRE.));
#310=SURFACE_SIDE_STYLE('',(#462));
#311=EDGE_LOOP('',(#463,#464,#465,#466,#467,#468,#469,#470));
#312=AXIS2_PLACEMENT_3D('',#471,#472,#473);
#313=DRAUGHTING_PRE_DEFINED_CURVE_FONT('continuous');
#314=COLOUR_RGB('',0.800000011920929,0.800000011920929,0.800000011920929);
#315=CARTESIAN_POINT('',(0.0,0.800000000000001,0.0));
#316=VECTOR('',#474,1.0);
#317=DRAUGHTING_PRE_DEFINED_CURVE_FONT('continuous');
#318=COLOUR_RGB('',0.800000011920929,0.800000011920929,0.800000011920929);
#319=AXIS2_PLACEMENT_3D('',#475,#476,#477);
#320=PRE_DEFINED_MARKER('');
#321=COLOUR_RGB('',0.800000011920929,0.800000011920929,0.800000011920929);
#322=SURFACE_SIDE_STYLE('',(#478));
#323=EDGE_LOOP('',(#479,#480,#481,#482));
#324=AXIS2_PLACEMENT_3D('',#483,#484,#485);
#325=SURFACE_SIDE_STYLE('',(#486));
#326=EDGE_LOOP('',(#487,#488,#489,#490));
#327=AXIS2_PLACEMENT_3D('',#491,#492,#493);
#328=DRAUGHTING_PRE_DEFINED_CURVE_FONT('continuous');
#329=COLOUR_RGB('',0.800000011920929,0.800000011920929,0.800000011920929);
#330=CARTESIAN_POINT('',(9.2,10.0,0.0));
#331=VECTOR('',#494,1.0);
#332=PRE_DEFINED_MARKER('');
#333=COLOUR_RGB('',0.800000011920929,0.800000011920929,0.800000011920929);
#334=DRAUGHTING_PRE_DEFINED_CURVE_FONT('continuous');
#335=COLOUR_RGB('',0.800000011920929,0.800000011920929,0.800000011920929);
#336=CARTESIAN_POINT('',(9.2,9.4843048442078,-4.2));
#337=VECTOR('',#495,1.0);
#338=SURFACE_SIDE_STYLE('',(#496));
#339=EDGE_LOOP('',(#497,#498,#499,#500));
#340=AXIS2_PLACEMENT_3D('',#501,#502,#503);
#341=DRAUGHTING_PRE_DEFINED_CURVE_FONT('continuous');
#342=COLOUR_RGB('',0.800000011920929,0.800000011920929,0.800000011920929);
#343=CARTESIAN_POINT('',(0.800000000000001,10.0,0.0));
#344=VECTOR('',#504,1.0);
#345=DRAUGHTING_PRE_DEFINED_CURVE_FONT('continuous');
#346=COLOUR_RGB('',0.800000011920929,0.800000011920929,0.800000011920929);
#347=CARTESIAN_POINT('',(1.00000341340944E-010,9.2,0.0));
#348=VECTOR('',#505,1.0);
#349=SURFACE_SIDE_STYLE('',(#506));
#350=EDGE_LOOP('',(#507,#508,#509,#510));
#351=AXIS2_PLACEMENT_3D('',#511,#512,#513);
#352=PRE_DEFINED_MARKER('');
#353=COLOUR_RGB('',0.800000011920929,0.800000011920929,0.800000011920929);
#354=DRAUGHTING_PRE_DEFINED_CURVE_FONT('continuous');
#355=COLOUR_RGB('',0.800000011920929,0.800000011920929,0.800000011920929);
#356=CARTESIAN_POINT('',(0.8,0.0,0.0));
#357=VECTOR('',#514,1.0);
#358=PRE_DEFINED_MARKER('');
#359=COLOUR_RGB('',0.800000011920929,0.800000011920929,0.800000011920929);
#360=SURFACE_SIDE_STYLE('',(#515));
#361=EDGE_LOOP('',(#516,#517,#518,#519));
#362=AXIS2_PLACEMENT_3D('',#520,#521,#522);
#363=PRE_DEFINED_MARKER('');
#364=COLOUR_RGB('',0.800000011920929,0.800000011920929,0.800000011920929);
#365=DRAUGHTING_PRE_DEFINED_CURVE_FONT('continuous');
#366=COLOUR_RGB('',0.800000011920929,0.800000011920929,0.800000011920929);
#367=AXIS2_PLACEMENT_3D('',#523,#524,#525);
#368=DRAUGHTING_PRE_DEFINED_CURVE_FONT('continuous');
#369=COLOUR_RGB('',0.800000011920929,0.800000011920929,0.800000011920929);
#370=CARTESIAN_POINT('',(9.4843048442078,0.8,-4.2));
#371=VECTOR('',#526,1.0);
#372=DRAUGHTING_PRE_DEFINED_CURVE_FONT('continuous');
#373=COLOUR_RGB('',0.800000011920929,0.800000011920929,0.800000011920929);
#374=AXIS2_PLACEMENT_3D('',#527,#528,#529);
#375=DRAUGHTING_PRE_DEFINED_CURVE_FONT('continuous');
#376=COLOUR_RGB('',0.800000011920929,0.800000011920929,0.800000011920929);
#377=AXIS2_PLACEMENT_3D('',#530,#531,#532);
#378=PRE_DEFINED_MARKER('');
#379=COLOUR_RGB('',0.800000011920929,0.800000011920929,0.800000011920929);
#380=SURFACE_SIDE_STYLE('',(#533));
#381=EDGE_LOOP('',(#534,#535,#536,#537));
#382=AXIS2_PLACEMENT_3D('',#538,#539,#540);
#383=PRE_DEFINED_MARKER('');
#384=COLOUR_RGB('',0.800000011920929,0.800000011920929,0.800000011920929);
#385=SURFACE_SIDE_STYLE('',(#541));
#386=EDGE_LOOP('',(#542,#543,#544,#545));
#387=AXIS2_PLACEMENT_3D('',#546,#547,#548);
#388=PRE_DEFINED_MARKER('');
#389=COLOUR_RGB('',0.800000011920929,0.800000011920929,0.800000011920929);
#390=DRAUGHTING_PRE_DEFINED_CURVE_FONT('continuous');
#391=COLOUR_RGB('',0.800000011920929,0.800000011920929,0.800000011920929);
#392=CARTESIAN_POINT('',(9.9999999999,0.8,0.0));
#393=VECTOR('',#549,1.0);
#394=SURFACE_SIDE_STYLE('',(#550));
#395=EDGE_LOOP('',(#551,#552,#553,#554));
#396=AXIS2_PLACEMENT_3D('',#555,#556,#557);
#397=PRE_DEFINED_MARKER('');
#398=COLOUR_RGB('',0.800000011920929,0.800000011920929,0.800000011920929);
#399=DRAUGHTING_PRE_DEFINED_CURVE_FONT('continuous');
#400=COLOUR_RGB('',0.800000011920929,0.800000011920929,0.800000011920929);
#401=CARTESIAN_POINT('',(0.515695155792198,9.2,-4.2));
#402=VECTOR('',#558,1.0);
#403=DRAUGHTING_PRE_DEFINED_CURVE_FONT('continuous');
#404=COLOUR_RGB('',0.800000011920929,0.800000011920929,0.800000011920929);
#405=AXIS2_PLACEMENT_3D('',#559,#560,#561);
#406=PRE_DEFINED_MARKER('');
#407=COLOUR_RGB('',0.800000011920929,0.800000011920929,0.800000011920929);
#408=DRAUGHTING_PRE_DEFINED_CURVE_FONT('continuous');
#409=COLOUR_RGB('',0.800000011920929,0.800000011920929,0.800000011920929);
#410=CARTESIAN_POINT('',(9.2,9.9999999999,0.0));
#411=VECTOR('',#562,1.0);
#412=DRAUGHTING_PRE_DEFINED_CURVE_FONT('continuous');
#413=COLOUR_RGB('',0.800000011920929,0.800000011920929,0.800000011920929);
#414=CARTESIAN_POINT('',(0.8,0.0,0.0));
#415=VECTOR('',#563,1.0);
#416=PRE_DEFINED_MARKER('');
#417=COLOUR_RGB('',0.800000011920929,0.800000011920929,0.800000011920929);
#418=DRAUGHTING_PRE_DEFINED_CURVE_FONT('continuous');
#419=COLOUR_RGB('',0.800000011920929,0.800000011920929,0.800000011920929);
#420=CARTESIAN_POINT('',(0.0,9.2,0.0));
#421=VECTOR('',#564,1.0);
#422=DRAUGHTING_PRE_DEFINED_CURVE_FONT('continuous');
#423=COLOUR_RGB('',0.800000011920929,0.800000011920929,0.800000011920929);
#424=AXIS2_PLACEMENT_3D('',#565,#566,#567);
#425=DRAUGHTING_PRE_DEFINED_CURVE_FONT('continuous');
#426=COLOUR_RGB('',0.800000011920929,0.800000011920929,0.800000011920929);
#427=CARTESIAN_POINT('',(0.8,0.515695155792198,-4.2));
#428=VECTOR('',#568,1.0);
#429=SURFACE_SIDE_STYLE('',(#569));
#430=EDGE_LOOP('',(#570,#571,#572,#573,#574,#575,#576,#577));
#431=AXIS2_PLACEMENT_3D('',#578,#579,#580);
#432=DRAUGHTING_PRE_DEFINED_CURVE_FONT('continuous');
#433=COLOUR_RGB('',0.800000011920929,0.800000011920929,0.800000011920929);
#434=CARTESIAN_POINT('',(10.0,9.2,0.0));
#435=VECTOR('',#581,1.0);
#436=DRAUGHTING_PRE_DEFINED_CURVE_FONT('continuous');
#437=COLOUR_RGB('',0.800000011920929,0.800000011920929,0.800000011920929);
#438=AXIS2_PLACEMENT_3D('',#582,#583,#584);
#439=DRAUGHTING_PRE_DEFINED_CURVE_FONT('continuous');
#440=COLOUR_RGB('',0.800000011920929,0.800000011920929,0.800000011920929);
#441=CARTESIAN_POINT('',(10.0,0.8,0.0));
#442=VECTOR('',#585,1.0);
#443=PRE_DEFINED_MARKER('');
#444=COLOUR_RGB('',0.800000011920929,0.800000011920929,0.800000011920929);
#445=PRE_DEFINED_MARKER('');
#446=COLOUR_RGB('',0.800000011920929,0.800000011920929,0.800000011920929);
#447=SURFACE_SIDE_STYLE('',(#586));
#448=PRE_DEFINED_MARKER('');
#449=COLOUR_RGB('',0.800000011920929,0.800000011920929,0.800000011920929);
#450=DRAUGHTING_PRE_DEFINED_CURVE_FONT('continuous');
#451=COLOUR_RGB('',0.800000011920929,0.800000011920929,0.800000011920929);
#452=CARTESIAN_POINT('',(9.2,0.0,0.0));
#453=VECTOR('',#587,1.0);
#454=DRAUGHTING_PRE_DEFINED_CURVE_FONT('continuous');
#455=COLOUR_RGB('',0.800000011920929,0.800000011920929,0.800000011920929);
#456=AXIS2_PLACEMENT_3D('',#588,#589,#590);
#457=PRE_DEFINED_MARKER('');
#458=COLOUR_RGB('',0.800000011920929,0.800000011920929,0.800000011920929);
#459=PRE_DEFINED_MARKER('');
#460=COLOUR_RGB('',0.800000011920929,0.800000011920929,0.800000011920929);
#462=SURFACE_STYLE_FILL_AREA(#591);
#463=ORIENTED_EDGE('',*,*,#137,.F.);
#464=ORIENTED_EDGE('',*,*,#151,.F.);
#465=ORIENTED_EDGE('',*,*,#171,.F.);
#466=ORIENTED_EDGE('',*,*,#135,.F.);
#467=ORIENTED_EDGE('',*,*,#115,.F.);
#468=ORIENTED_EDGE('',*,*,#91,.F.);
#469=ORIENTED_EDGE('',*,*,#111,.F.);
#470=ORIENTED_EDGE('',*,*,#113,.F.);
#471=CARTESIAN_POINT('',(5.0,5.0,-4.2));
#472=DIRECTION('',(0.0,0.0,1.0));
#473=DIRECTION('',(1.0,0.0,0.0));
#474=DIRECTION('',(0.121869343428428,1.52335333865716E-011,-0.992546151638464));
#475=CARTESIAN_POINT('',(9.19999999989999,9.1999999999,0.0));
#476=DIRECTION('',(0.0,-0.0,1.0));
#477=DIRECTION('',(1.0,1.25004451234644E-010,0.0));
#478=SURFACE_STYLE_FILL_AREA(#592);
#479=ORIENTED_EDGE('',*,*,#91,.T.);
#480=ORIENTED_EDGE('',*,*,#95,.F.);
#481=ORIENTED_EDGE('',*,*,#87,.F.);
#482=ORIENTED_EDGE('',*,*,#141,.T.);
#483=CARTESIAN_POINT('',(9.2,9.9999999999,0.0));
#484=DIRECTION('',(0.0,0.992546151644181,-0.121869343381866));
#485=DIRECTION('',(1.0,-0.0,0.0));
#486=SURFACE_STYLE_FILL_AREA(#593);
#487=ORIENTED_EDGE('',*,*,#113,.T.);
#488=ORIENTED_EDGE('',*,*,#155,.F.);
#489=ORIENTED_EDGE('',*,*,#159,.F.);
#490=ORIENTED_EDGE('',*,*,#129,.T.);
#491=CARTESIAN_POINT('',(9.9999999999,0.8,0.0));
#492=DIRECTION('',(0.992546151644181,-0.0,-0.121869343381866));
#493=DIRECTION('',(-0.0,-1.0,0.0));
#494=DIRECTION('',(-1.0,0.0,0.0));
#495=DIRECTION('',(-1.0,0.0,0.0));
#496=SURFACE_STYLE_FILL_AREA(#594);
#497=ORIENTED_EDGE('',*,*,#151,.T.);
#498=ORIENTED_EDGE('',*,*,#169,.F.);
#499=ORIENTED_EDGE('',*,*,#103,.F.);
#500=ORIENTED_EDGE('',*,*,#143,.T.);
#501=CARTESIAN_POINT('',(0.8,0.0,0.0));
#502=DIRECTION('',(-0.0,-0.992546151641322,-0.121869343405147));
#503=DIRECTION('',(-1.0,0.0,0.0));
#504=DIRECTION('',(1.52342680182986E-011,-0.121869343428428,-0.992546151638464));
#505=DIRECTION('',(0.121869343381866,0.0,-0.992546151644181));
#506=SURFACE_STYLE_FILL_AREA(#595);
#507=ORIENTED_EDGE('',*,*,#137,.T.);
#508=ORIENTED_EDGE('',*,*,#129,.F.);
#509=ORIENTED_EDGE('',*,*,#117,.F.);
#510=ORIENTED_EDGE('',*,*,#169,.T.);
#511=CARTESIAN_POINT('',(9.1999999999,0.800000000100001,0.0));
#512=DIRECTION('',(-0.0,-0.0,1.0));
#513=DIRECTION('',(1.25000010342546E-010,-1.0,0.0));
#514=DIRECTION('',(1.0,0.0,0.0));
#515=SURFACE_STYLE_FILL_AREA(#596);
#516=ORIENTED_EDGE('',*,*,#111,.T.);
#517=ORIENTED_EDGE('',*,*,#141,.F.);
#518=ORIENTED_EDGE('',*,*,#79,.F.);
#519=ORIENTED_EDGE('',*,*,#155,.T.);
#520=CARTESIAN_POINT('',(9.19999999989999,9.1999999999,0.0));
#521=DIRECTION('',(-0.0,-0.0,1.0));
#522=DIRECTION('',(1.0,1.25004451234644E-010,0.0));
#523=CARTESIAN_POINT('',(9.19999999989999,9.1999999999,-4.2));
#524=DIRECTION('',(0.0,-0.0,1.0));
#525=DIRECTION('',(1.0,1.25004451234644E-010,0.0));
#526=DIRECTION('',(0.0,1.0,0.0));
#527=CARTESIAN_POINT('',(0.800000000100005,9.1999999999,-4.2));
#528=DIRECTION('',(0.0,0.0,1.0));
#529=DIRECTION('',(-1.25005977791303E-010,1.0,0.0));
#530=CARTESIAN_POINT('',(9.1999999999,0.800000000100001,0.0));
#531=DIRECTION('',(0.0,0.0,1.0));
#532=DIRECTION('',(1.25000010342546E-010,-1.0,0.0));
#533=SURFACE_STYLE_FILL_AREA(#597);
#534=ORIENTED_EDGE('',*,*,#115,.T.);
#535=ORIENTED_EDGE('',*,*,#97,.F.);
#536=ORIENTED_EDGE('',*,*,#157,.F.);
#537=ORIENTED_EDGE('',*,*,#95,.T.);
#538=CARTESIAN_POINT('',(0.800000000100005,9.1999999999,0.0));
#539=DIRECTION('',(-0.0,-0.0,1.0));
#540=DIRECTION('',(-1.25005977791303E-010,1.0,0.0));
#541=SURFACE_STYLE_FILL_AREA(#598);
#542=ORIENTED_EDGE('',*,*,#171,.T.);
#543=ORIENTED_EDGE('',*,*,#143,.F.);
#544=ORIENTED_EDGE('',*,*,#149,.F.);
#545=ORIENTED_EDGE('',*,*,#77,.T.);
#546=CARTESIAN_POINT('',(0.8000000001,0.8000000001,0.0));
#547=DIRECTION('',(0.0,-0.0,1.0));
#548=DIRECTION('',(-1.0,-1.24999455231034E-010,0.0));
#549=DIRECTION('',(-0.121869343381866,0.0,-0.992546151644181));
#550=SURFACE_STYLE_FILL_AREA(#599);
#551=ORIENTED_EDGE('',*,*,#135,.T.);
#552=ORIENTED_EDGE('',*,*,#77,.F.);
#553=ORIENTED_EDGE('',*,*,#147,.F.);
#554=ORIENTED_EDGE('',*,*,#97,.T.);
#555=CARTESIAN_POINT('',(1.00000341340944E-010,9.2,0.0));
#556=DIRECTION('',(-0.992546151644181,0.0,-0.121869343381866));
#557=DIRECTION('',(0.0,1.0,0.0));
#558=DIRECTION('',(0.0,-1.0,0.0));
#559=CARTESIAN_POINT('',(9.1999999999,0.800000000100001,-4.2));
#560=DIRECTION('',(0.0,0.0,1.0));
#561=DIRECTION('',(1.25000010342546E-010,-1.0,0.0));
#562=DIRECTION('',(0.0,-0.121869343381866,-0.992546151644181));
#563=DIRECTION('',(0.0,0.121869343405147,-0.992546151641322));
#564=DIRECTION('',(0.0,-1.0,0.0));
#565=CARTESIAN_POINT('',(0.8000000001,0.8000000001,0.0));
#566=DIRECTION('',(0.0,0.0,1.0));
#567=DIRECTION('',(-1.0,-1.24999455231034E-010,0.0));
#568=DIRECTION('',(1.0,0.0,0.0));
#569=SURFACE_STYLE_FILL_AREA(#600);
#570=ORIENTED_EDGE('',*,*,#103,.T.);
#571=ORIENTED_EDGE('',*,*,#117,.T.);
#572=ORIENTED_EDGE('',*,*,#159,.T.);
#573=ORIENTED_EDGE('',*,*,#79,.T.);
#574=ORIENTED_EDGE('',*,*,#87,.T.);
#575=ORIENTED_EDGE('',*,*,#157,.T.);
#576=ORIENTED_EDGE('',*,*,#147,.T.);
#577=ORIENTED_EDGE('',*,*,#149,.T.);
#578=CARTESIAN_POINT('',(5.0,5.0,0.0));
#579=DIRECTION('',(0.0,0.0,1.0));
#580=DIRECTION('',(1.0,0.0,0.0));
#581=DIRECTION('',(-0.121869343428428,-1.5234163070909E-011,-0.992546151638464));
#582=CARTESIAN_POINT('',(0.800000000100005,9.1999999999,0.0));
#583=DIRECTION('',(0.0,0.0,1.0));
#584=DIRECTION('',(-1.25005977791303E-010,1.0,0.0));
#585=DIRECTION('',(0.0,1.0,0.0));
#586=SURFACE_STYLE_FILL_AREA(#601);
#587=DIRECTION('',(-1.52337432813507E-011,0.121869343428428,-0.992546151638464));
#588=CARTESIAN_POINT('',(0.8000000001,0.8000000001,-4.2));
#589=DIRECTION('',(0.0,0.0,1.0));
#590=DIRECTION('',(-1.0,-1.24999455231034E-010,0.0));
#591=FILL_AREA_STYLE('',(#602));
#592=FILL_AREA_STYLE('',(#603));
#593=FILL_AREA_STYLE('',(#604));
#594=FILL_AREA_STYLE('',(#605));
#595=FILL_AREA_STYLE('',(#606));
#596=FILL_AREA_STYLE('',(#607));
#597=FILL_AREA_STYLE('',(#608));
#598=FILL_AREA_STYLE('',(#609));
#599=FILL_AREA_STYLE('',(#610));
#600=FILL_AREA_STYLE('',(#611));
#601=FILL_AREA_STYLE('',(#612));
#602=FILL_AREA_STYLE_COLOUR('',#613);
#603=FILL_AREA_STYLE_COLOUR('',#614);
#604=FILL_AREA_STYLE_COLOUR('',#615);
#605=FILL_AREA_STYLE_COLOUR('',#616);
#606=FILL_AREA_STYLE_COLOUR('',#617);
#607=FILL_AREA_STYLE_COLOUR('',#618);
#608=FILL_AREA_STYLE_COLOUR('',#619);
#609=FILL_AREA_STYLE_COLOUR('',#620);
#610=FILL_AREA_STYLE_COLOUR('',#621);
#611=FILL_AREA_STYLE_COLOUR('',#622);
#612=FILL_AREA_STYLE_COLOUR('',#623);
#613=COLOUR_RGB('',0.800000011920929,0.800000011920929,0.800000011920929);
#614=COLOUR_RGB('',0.800000011920929,0.800000011920929,0.800000011920929);
#615=COLOUR_RGB('',0.800000011920929,0.800000011920929,0.800000011920929);
#616=COLOUR_RGB('',0.800000011920929,0.800000011920929,0.800000011920929);
#617=COLOUR_RGB('',0.800000011920929,0.800000011920929,0.800000011920929);
#618=COLOUR_RGB('',0.800000011920929,0.800000011920929,0.800000011920929);
#619=COLOUR_RGB('',0.800000011920929,0.800000011920929,0.800000011920929);
#620=COLOUR_RGB('',0.800000011920929,0.800000011920929,0.800000011920929);
#621=COLOUR_RGB('',0.800000011920929,0.800000011920929,0.800000011920929);
#622=COLOUR_RGB('',0.800000011920929,0.800000011920929,0.800000011920929);
#623=COLOUR_RGB('',0.800000011920929,0.800000011920929,0.800000011920929);
#624=AXIS2_PLACEMENT_3D('PCS',#625,#626,#627);
#625=CARTESIAN_POINT('',(0.0,0.0,0.0));
#626=DIRECTION('',(0.0,0.0,1.0));
#627=DIRECTION('',(1.0,0.0,0.0));
#628=AXIS2_PLACEMENT_3D('MCS',#629,#630,#631);
#629=CARTESIAN_POINT('',(5.0,5.0,0.0));
#630=DIRECTION('',(0.0,0.0,1.0));
#631=DIRECTION('',(1.0,0.0,0.0));
#632=CONSTRUCTIVE_GEOMETRY_REPRESENTATION_RELATIONSHIP('coordinate systems',$,#65,#633);
#633=CONSTRUCTIVE_GEOMETRY_REPRESENTATION('coordinate systems',(#624,#628),#6);
ENDSEC;
END-ISO-10303-21;
