ISO-10303-21;
HEADER;
FILE_DESCRIPTION(('no description'),'unknown implementation level');
FILE_NAME('solidGZIn3ynUcIukSlD_KIW0T84q_p8_1.STP','  ',('CIMSOURCE GmbH'),('CADClick - KiM GmbH - www.kimweb.de'),'unknown preprocess','ACIS','unknown authorization');
FILE_SCHEMA(('automotive_design'));
ENDSEC;
DATA;
#1=MECHANICAL_DESIGN_GEOMETRIC_PRESENTATION_REPRESENTATION(' ',(#10,#11,#12,#13,#14,#15,#16,#17,#18,#19,#20,#21,#22,#23,#24,#25,#26,#27,#28,#29,#30,#31,#32,#33,#34,#35,#36,#37,#38,#39,#40,#41,#42,#43,#44,#45,#46,#47,#48,#49,#50,#51,#52,#53,#54,#55,#56,#57,#58,#59,#60),#6);
#2=PRODUCT_DEFINITION_CONTEXT('',#61,'design');
#3=APPLICATION_PROTOCOL_DEFINITION('INTERNATIONAL STANDARD','automotive_design',1994,#61);
#4=PRODUCT_CATEGORY_RELATIONSHIP('NONE','NONE',#62,#63);
#5=SHAPE_DEFINITION_REPRESENTATION(#64,#65);
#6= (GEOMETRIC_REPRESENTATION_CONTEXT(3)GLOBAL_UNCERTAINTY_ASSIGNED_CONTEXT((#68))GLOBAL_UNIT_ASSIGNED_CONTEXT((#70,#71,#72))REPRESENTATION_CONTEXT('NONE','WORKSPACE'));
#10=STYLED_ITEM('',(#74),#75);
#11=STYLED_ITEM('',(#76),#77);
#12=STYLED_ITEM('',(#78),#79);
#13=STYLED_ITEM('',(#80),#81);
#14=STYLED_ITEM('',(#82),#83);
#15=STYLED_ITEM('',(#84),#85);
#16=STYLED_ITEM('',(#86),#87);
#17=STYLED_ITEM('',(#88),#89);
#18=STYLED_ITEM('',(#90),#91);
#19=STYLED_ITEM('',(#92),#93);
#20=STYLED_ITEM('',(#94),#95);
#21=STYLED_ITEM('',(#96),#97);
#22=STYLED_ITEM('',(#98),#99);
#23=STYLED_ITEM('',(#100),#101);
#24=STYLED_ITEM('',(#102),#103);
#25=STYLED_ITEM('',(#104),#105);
#26=STYLED_ITEM('',(#106),#107);
#27=STYLED_ITEM('',(#108),#109);
#28=STYLED_ITEM('',(#110),#111);
#29=STYLED_ITEM('',(#112),#113);
#30=STYLED_ITEM('',(#114),#115);
#31=STYLED_ITEM('',(#116),#117);
#32=STYLED_ITEM('',(#118),#119);
#33=STYLED_ITEM('',(#120),#121);
#34=STYLED_ITEM('',(#122),#123);
#35=STYLED_ITEM('',(#124),#125);
#36=STYLED_ITEM('',(#126),#127);
#37=STYLED_ITEM('',(#128),#129);
#38=STYLED_ITEM('',(#130),#131);
#39=STYLED_ITEM('',(#132),#133);
#40=STYLED_ITEM('',(#134),#135);
#41=STYLED_ITEM('',(#136),#137);
#42=STYLED_ITEM('',(#138),#139);
#43=STYLED_ITEM('',(#140),#141);
#44=STYLED_ITEM('',(#142),#143);
#45=STYLED_ITEM('',(#144),#145);
#46=STYLED_ITEM('',(#146),#147);
#47=STYLED_ITEM('',(#148),#149);
#48=STYLED_ITEM('',(#150),#151);
#49=STYLED_ITEM('',(#152),#153);
#50=STYLED_ITEM('',(#154),#155);
#51=STYLED_ITEM('',(#156),#157);
#52=STYLED_ITEM('',(#158),#159);
#53=STYLED_ITEM('',(#160),#161);
#54=STYLED_ITEM('',(#162),#163);
#55=STYLED_ITEM('',(#164),#165);
#56=STYLED_ITEM('',(#166),#167);
#57=STYLED_ITEM('',(#168),#169);
#58=STYLED_ITEM('',(#170),#171);
#59=STYLED_ITEM('',(#172),#173);
#60=STYLED_ITEM('',(#174),#175);
#61=APPLICATION_CONTEXT(' ');
#62=PRODUCT_CATEGORY('part','NONE');
#63=PRODUCT_RELATED_PRODUCT_CATEGORY('detail',' ',(#176));
#64=PRODUCT_DEFINITION_SHAPE('NONE','NONE',#177);
#65=ADVANCED_BREP_SHAPE_REPRESENTATION('1',(#169,#178),#6);
#68=UNCERTAINTY_MEASURE_WITH_UNIT(LENGTH_MEASURE(1.0E-006),#70,'','');
#70= (CONVERSION_BASED_UNIT('MILLIMETRE',#181)LENGTH_UNIT()NAMED_UNIT(#184));
#71= (NAMED_UNIT(#186)PLANE_ANGLE_UNIT()SI_UNIT($,.RADIAN.));
#72= (NAMED_UNIT(#186)SOLID_ANGLE_UNIT()SI_UNIT($,.STERADIAN.));
#74=PRESENTATION_STYLE_ASSIGNMENT((#192));
#75=ADVANCED_FACE('',(#193),#194,.T.);
#76=PRESENTATION_STYLE_ASSIGNMENT((#195));
#77=VERTEX_POINT('',#196);
#78=PRESENTATION_STYLE_ASSIGNMENT((#197));
#79=EDGE_CURVE('',#85,#161,#198,.T.);
#80=PRESENTATION_STYLE_ASSIGNMENT((#199));
#81=VERTEX_POINT('',#200);
#82=PRESENTATION_STYLE_ASSIGNMENT((#201));
#83=EDGE_CURVE('',#165,#115,#202,.T.);
#84=PRESENTATION_STYLE_ASSIGNMENT((#203));
#85=VERTEX_POINT('',#204);
#86=PRESENTATION_STYLE_ASSIGNMENT((#205));
#87=VERTEX_POINT('',#206);
#88=PRESENTATION_STYLE_ASSIGNMENT((#207));
#89=EDGE_CURVE('',#77,#137,#208,.T.);
#90=PRESENTATION_STYLE_ASSIGNMENT((#209));
#91=ADVANCED_FACE('',(#210),#211,.F.);
#92=PRESENTATION_STYLE_ASSIGNMENT((#212));
#93=EDGE_CURVE('',#115,#151,#213,.T.);
#94=PRESENTATION_STYLE_ASSIGNMENT((#214));
#95=EDGE_CURVE('',#81,#163,#215,.T.);
#96=PRESENTATION_STYLE_ASSIGNMENT((#216));
#97=EDGE_CURVE('',#81,#141,#217,.T.);
#98=PRESENTATION_STYLE_ASSIGNMENT((#218));
#99=VERTEX_POINT('',#219);
#100=PRESENTATION_STYLE_ASSIGNMENT((#220));
#101=EDGE_CURVE('',#143,#87,#221,.T.);
#102=PRESENTATION_STYLE_ASSIGNMENT((#222));
#103=EDGE_CURVE('',#119,#85,#223,.T.);
#104=PRESENTATION_STYLE_ASSIGNMENT((#224));
#105=ADVANCED_FACE('',(#225),#226,.T.);
#106=PRESENTATION_STYLE_ASSIGNMENT((#227));
#107=EDGE_CURVE('',#151,#77,#228,.T.);
#108=PRESENTATION_STYLE_ASSIGNMENT((#229));
#109=EDGE_CURVE('',#165,#99,#230,.T.);
#110=PRESENTATION_STYLE_ASSIGNMENT((#231));
#111=EDGE_CURVE('',#163,#155,#232,.T.);
#112=PRESENTATION_STYLE_ASSIGNMENT((#233));
#113=VERTEX_POINT('',#234);
#114=PRESENTATION_STYLE_ASSIGNMENT((#235));
#115=VERTEX_POINT('',#236);
#116=PRESENTATION_STYLE_ASSIGNMENT((#237));
#117=ADVANCED_FACE('',(#238),#239,.T.);
#118=PRESENTATION_STYLE_ASSIGNMENT((#240));
#119=VERTEX_POINT('',#241);
#120=PRESENTATION_STYLE_ASSIGNMENT((#242));
#121=EDGE_CURVE('',#115,#143,#243,.T.);
#122=PRESENTATION_STYLE_ASSIGNMENT((#244));
#123=EDGE_CURVE('',#113,#161,#245,.T.);
#124=PRESENTATION_STYLE_ASSIGNMENT((#246));
#125=ADVANCED_FACE('',(#247),#248,.T.);
#126=PRESENTATION_STYLE_ASSIGNMENT((#249));
#127=EDGE_CURVE('',#161,#141,#250,.T.);
#128=PRESENTATION_STYLE_ASSIGNMENT((#251));
#129=EDGE_CURVE('',#163,#165,#252,.T.);
#130=PRESENTATION_STYLE_ASSIGNMENT((#253));
#131=ADVANCED_FACE('',(#254),#255,.T.);
#132=PRESENTATION_STYLE_ASSIGNMENT((#256));
#133=EDGE_CURVE('',#151,#87,#257,.T.);
#134=PRESENTATION_STYLE_ASSIGNMENT((#258));
#135=ADVANCED_FACE('',(#259),#260,.T.);
#136=PRESENTATION_STYLE_ASSIGNMENT((#261));
#137=VERTEX_POINT('',#262);
#138=PRESENTATION_STYLE_ASSIGNMENT((#263));
#139=EDGE_CURVE('',#119,#113,#264,.T.);
#140=PRESENTATION_STYLE_ASSIGNMENT((#265));
#141=VERTEX_POINT('',#266);
#142=PRESENTATION_STYLE_ASSIGNMENT((#267));
#143=VERTEX_POINT('',#268);
#144=PRESENTATION_STYLE_ASSIGNMENT((#269));
#145=ADVANCED_FACE('',(#270),#271,.T.);
#146=PRESENTATION_STYLE_ASSIGNMENT((#272));
#147=EDGE_CURVE('',#113,#81,#273,.T.);
#148=PRESENTATION_STYLE_ASSIGNMENT((#274));
#149=ADVANCED_FACE('',(#275),#276,.T.);
#150=PRESENTATION_STYLE_ASSIGNMENT((#277));
#151=VERTEX_POINT('',#278);
#152=PRESENTATION_STYLE_ASSIGNMENT((#279));
#153=EDGE_CURVE('',#87,#137,#280,.T.);
#154=PRESENTATION_STYLE_ASSIGNMENT((#281));
#155=VERTEX_POINT('',#282);
#156=PRESENTATION_STYLE_ASSIGNMENT((#283));
#157=EDGE_CURVE('',#141,#155,#284,.T.);
#158=PRESENTATION_STYLE_ASSIGNMENT((#285));
#159=EDGE_CURVE('',#155,#99,#286,.T.);
#160=PRESENTATION_STYLE_ASSIGNMENT((#287));
#161=VERTEX_POINT('',#288);
#162=PRESENTATION_STYLE_ASSIGNMENT((#289));
#163=VERTEX_POINT('',#290);
#164=PRESENTATION_STYLE_ASSIGNMENT((#291));
#165=VERTEX_POINT('',#292);
#166=PRESENTATION_STYLE_ASSIGNMENT((#293));
#167=EDGE_CURVE('',#99,#143,#294,.T.);
#168=PRESENTATION_STYLE_ASSIGNMENT((#295));
#169=MANIFOLD_SOLID_BREP('1',#296);
#170=PRESENTATION_STYLE_ASSIGNMENT((#297));
#171=ADVANCED_FACE('',(#298),#299,.T.);
#172=PRESENTATION_STYLE_ASSIGNMENT((#300));
#173=EDGE_CURVE('',#137,#85,#301,.T.);
#174=PRESENTATION_STYLE_ASSIGNMENT((#302));
#175=EDGE_CURVE('',#77,#119,#303,.T.);
#176=PRODUCT('1','1','PART-1-DESC',(#304));
#177=PRODUCT_DEFINITION('NONE','NONE',#305,#2);
#178=AXIS2_PLACEMENT_3D('',#306,#307,#308);
#181=LENGTH_MEASURE_WITH_UNIT(LENGTH_MEASURE(1.0),#309);
#184=DIMENSIONAL_EXPONENTS(1.0,0.0,0.0,0.0,0.0,0.0,0.0);
#186=DIMENSIONAL_EXPONENTS(0.0,0.0,0.0,0.0,0.0,0.0,0.0);
#192=SURFACE_STYLE_USAGE(.BOTH.,#310);
#193=FACE_OUTER_BOUND('',#311,.T.);
#194=PLANE('',#312);
#195=POINT_STYLE(' ',#313,POSITIVE_LENGTH_MEASURE(1.0E-006),#314);
#196=CARTESIAN_POINT('',(12.3,11.5,0.0));
#197=CURVE_STYLE('',#315,POSITIVE_LENGTH_MEASURE(1.0E-006),#316);
#198=LINE('',#317,#318);
#199=POINT_STYLE(' ',#319,POSITIVE_LENGTH_MEASURE(1.0E-006),#320);
#200=CARTESIAN_POINT('',(1.00000341340944E-010,11.5,0.0));
#201=CURVE_STYLE('',#321,POSITIVE_LENGTH_MEASURE(1.0E-006),#322);
#202=LINE('',#323,#324);
#203=POINT_STYLE(' ',#325,POSITIVE_LENGTH_MEASURE(1.0E-006),#326);
#204=CARTESIAN_POINT('',(11.5,11.6860771954855,-5.0));
#205=POINT_STYLE(' ',#327,POSITIVE_LENGTH_MEASURE(1.0E-006),#328);
#206=CARTESIAN_POINT('',(11.6860771954855,0.8,-5.0));
#207=CURVE_STYLE('',#329,POSITIVE_LENGTH_MEASURE(1.0E-006),#330);
#208=LINE('',#331,#332);
#209=SURFACE_STYLE_USAGE(.BOTH.,#333);
#210=FACE_OUTER_BOUND('',#334,.T.);
#211=PLANE('',#335);
#212=CURVE_STYLE('',#336,POSITIVE_LENGTH_MEASURE(1.0E-006),#337);
#213=CIRCLE('',#338,0.8);
#214=CURVE_STYLE('',#339,POSITIVE_LENGTH_MEASURE(1.0E-006),#340);
#215=LINE('',#341,#342);
#216=CURVE_STYLE('',#343,POSITIVE_LENGTH_MEASURE(1.0E-006),#344);
#217=LINE('',#345,#346);
#218=POINT_STYLE(' ',#347,POSITIVE_LENGTH_MEASURE(1.0E-006),#348);
#219=CARTESIAN_POINT('',(0.8,0.613922804514522,-5.0));
#220=CURVE_STYLE('',#349,POSITIVE_LENGTH_MEASURE(1.0E-006),#350);
#221=CIRCLE('',#351,0.186077195485479);
#222=CURVE_STYLE('',#352,POSITIVE_LENGTH_MEASURE(1.0E-006),#353);
#223=LINE('',#354,#355);
#224=SURFACE_STYLE_USAGE(.BOTH.,#356);
#225=FACE_OUTER_BOUND('',#357,.T.);
#226=PLANE('',#358);
#227=CURVE_STYLE('',#359,POSITIVE_LENGTH_MEASURE(1.0E-006),#360);
#228=LINE('',#361,#362);
#229=CURVE_STYLE('',#363,POSITIVE_LENGTH_MEASURE(1.0E-006),#364);
#230=LINE('',#365,#366);
#231=CURVE_STYLE('',#367,POSITIVE_LENGTH_MEASURE(1.0E-006),#368);
#232=LINE('',#369,#370);
#233=POINT_STYLE(' ',#371,POSITIVE_LENGTH_MEASURE(1.0E-006),#372);
#234=CARTESIAN_POINT('',(0.800000000000001,12.3,0.0));
#235=POINT_STYLE(' ',#373,POSITIVE_LENGTH_MEASURE(1.0E-006),#374);
#236=CARTESIAN_POINT('',(11.5,0.0,0.0));
#237=SURFACE_STYLE_USAGE(.BOTH.,#375);
#238=FACE_OUTER_BOUND('',#376,.T.);
#239=CONICAL_SURFACE('',#377,0.800000000000006,0.122173047639603);
#240=POINT_STYLE(' ',#378,POSITIVE_LENGTH_MEASURE(1.0E-006),#379);
#241=CARTESIAN_POINT('',(11.5,12.2999999999,0.0));
#242=CURVE_STYLE('',#380,POSITIVE_LENGTH_MEASURE(1.0E-006),#381);
#243=LINE('',#382,#383);
#244=CURVE_STYLE('',#384,POSITIVE_LENGTH_MEASURE(1.0E-006),#385);
#245=LINE('',#386,#387);
#246=SURFACE_STYLE_USAGE(.BOTH.,#388);
#247=FACE_OUTER_BOUND('',#389,.T.);
#248=PLANE('',#390);
#249=CURVE_STYLE('',#391,POSITIVE_LENGTH_MEASURE(1.0E-006),#392);
#250=CIRCLE('',#393,0.186077195485483);
#251=CURVE_STYLE('',#394,POSITIVE_LENGTH_MEASURE(1.0E-006),#395);
#252=CIRCLE('',#396,0.8);
#253=SURFACE_STYLE_USAGE(.BOTH.,#397);
#254=FACE_OUTER_BOUND('',#398,.T.);
#255=CONICAL_SURFACE('',#399,0.8,0.122173047639603);
#256=CURVE_STYLE('',#400,POSITIVE_LENGTH_MEASURE(1.0E-006),#401);
#257=LINE('',#402,#403);
#258=SURFACE_STYLE_USAGE(.BOTH.,#404);
#259=FACE_OUTER_BOUND('',#405,.T.);
#260=CONICAL_SURFACE('',#406,0.800000000000004,0.122173047639603);
#261=POINT_STYLE(' ',#407,POSITIVE_LENGTH_MEASURE(1.0E-006),#408);
#262=CARTESIAN_POINT('',(11.6860771953855,11.4999999999233,-5.0));
#263=CURVE_STYLE('',#409,POSITIVE_LENGTH_MEASURE(1.0E-006),#410);
#264=LINE('',#411,#412);
#265=POINT_STYLE(' ',#413,POSITIVE_LENGTH_MEASURE(1.0E-006),#414);
#266=CARTESIAN_POINT('',(0.613922804514522,11.5,-5.0));
#267=POINT_STYLE(' ',#415,POSITIVE_LENGTH_MEASURE(1.0E-006),#416);
#268=CARTESIAN_POINT('',(11.4999999999233,0.613922804614522,-5.0));
#269=SURFACE_STYLE_USAGE(.BOTH.,#417);
#270=FACE_OUTER_BOUND('',#418,.T.);
#271=PLANE('',#419);
#272=CURVE_STYLE('',#420,POSITIVE_LENGTH_MEASURE(1.0E-006),#421);
#273=CIRCLE('',#422,0.800000000000004);
#274=SURFACE_STYLE_USAGE(.BOTH.,#423);
#275=FACE_OUTER_BOUND('',#424,.T.);
#276=PLANE('',#425);
#277=POINT_STYLE(' ',#426,POSITIVE_LENGTH_MEASURE(1.0E-006),#427);
#278=CARTESIAN_POINT('',(12.2999999999,0.8,0.0));
#279=CURVE_STYLE('',#428,POSITIVE_LENGTH_MEASURE(1.0E-006),#429);
#280=LINE('',#430,#431);
#281=POINT_STYLE(' ',#432,POSITIVE_LENGTH_MEASURE(1.0E-006),#433);
#282=CARTESIAN_POINT('',(0.613922804614522,0.80000000007674,-5.0));
#283=CURVE_STYLE('',#434,POSITIVE_LENGTH_MEASURE(1.0E-006),#435);
#284=LINE('',#436,#437);
#285=CURVE_STYLE('',#438,POSITIVE_LENGTH_MEASURE(1.0E-006),#439);
#286=CIRCLE('',#440,0.186077195485478);
#287=POINT_STYLE(' ',#441,POSITIVE_LENGTH_MEASURE(1.0E-006),#442);
#288=CARTESIAN_POINT('',(0.800000000076744,11.6860771953855,-5.0));
#289=POINT_STYLE(' ',#443,POSITIVE_LENGTH_MEASURE(1.0E-006),#444);
#290=CARTESIAN_POINT('',(0.0,0.800000000000001,0.0));
#291=POINT_STYLE(' ',#445,POSITIVE_LENGTH_MEASURE(1.0E-006),#446);
#292=CARTESIAN_POINT('',(0.8,0.0,0.0));
#293=CURVE_STYLE('',#447,POSITIVE_LENGTH_MEASURE(1.0E-006),#448);
#294=LINE('',#449,#450);
#295=SURFACE_STYLE_USAGE(.BOTH.,#451);
#296=CLOSED_SHELL('',(#131,#75,#117,#145,#135,#125,#171,#149,#91,#105));
#297=SURFACE_STYLE_USAGE(.BOTH.,#452);
#298=FACE_OUTER_BOUND('',#453,.T.);
#299=CONICAL_SURFACE('',#454,0.8,0.122173047639603);
#300=CURVE_STYLE('',#455,POSITIVE_LENGTH_MEASURE(1.0E-006),#456);
#301=CIRCLE('',#457,0.186077195485484);
#302=CURVE_STYLE('',#458,POSITIVE_LENGTH_MEASURE(1.0E-006),#459);
#303=CIRCLE('',#460,0.800000000000006);
#304=PRODUCT_CONTEXT('',#61,'mechanical');
#305=PRODUCT_DEFINITION_FORMATION_WITH_SPECIFIED_SOURCE(' ','NONE',#176,.NOT_KNOWN.);
#306=CARTESIAN_POINT('',(0.0,0.0,0.0));
#307=DIRECTION('',(0.0,0.0,1.0));
#308=DIRECTION('',(1.0,0.0,0.0));
#309= (NAMED_UNIT(#184)LENGTH_UNIT()SI_UNIT(.MILLI.,.METRE.));
#310=SURFACE_SIDE_STYLE('',(#462));
#311=EDGE_LOOP('',(#463,#464,#465,#466));
#312=AXIS2_PLACEMENT_3D('',#467,#468,#469);
#313=PRE_DEFINED_MARKER('');
#314=COLOUR_RGB('',0.800000011920929,0.800000011920929,0.800000011920929);
#315=DRAUGHTING_PRE_DEFINED_CURVE_FONT('continuous');
#316=COLOUR_RGB('',0.800000011920929,0.800000011920929,0.800000011920929);
#317=CARTESIAN_POINT('',(11.5,11.6860771954855,-5.0));
#318=VECTOR('',#470,1.0);
#319=PRE_DEFINED_MARKER('');
#320=COLOUR_RGB('',0.800000011920929,0.800000011920929,0.800000011920929);
#321=DRAUGHTING_PRE_DEFINED_CURVE_FONT('continuous');
#322=COLOUR_RGB('',0.800000011920929,0.800000011920929,0.800000011920929);
#323=CARTESIAN_POINT('',(0.8,0.0,0.0));
#324=VECTOR('',#471,1.0);
#325=PRE_DEFINED_MARKER('');
#326=COLOUR_RGB('',0.800000011920929,0.800000011920929,0.800000011920929);
#327=PRE_DEFINED_MARKER('');
#328=COLOUR_RGB('',0.800000011920929,0.800000011920929,0.800000011920929);
#329=DRAUGHTING_PRE_DEFINED_CURVE_FONT('continuous');
#330=COLOUR_RGB('',0.800000011920929,0.800000011920929,0.800000011920929);
#331=CARTESIAN_POINT('',(12.3,11.5,0.0));
#332=VECTOR('',#472,1.0);
#333=SURFACE_SIDE_STYLE('',(#473));
#334=EDGE_LOOP('',(#474,#475,#476,#477,#478,#479,#480,#481));
#335=AXIS2_PLACEMENT_3D('',#482,#483,#484);
#336=DRAUGHTING_PRE_DEFINED_CURVE_FONT('continuous');
#337=COLOUR_RGB('',0.800000011920929,0.800000011920929,0.800000011920929);
#338=AXIS2_PLACEMENT_3D('',#485,#486,#487);
#339=DRAUGHTING_PRE_DEFINED_CURVE_FONT('continuous');
#340=COLOUR_RGB('',0.800000011920929,0.800000011920929,0.800000011920929);
#341=CARTESIAN_POINT('',(0.0,11.5,0.0));
#342=VECTOR('',#488,1.0);
#343=DRAUGHTING_PRE_DEFINED_CURVE_FONT('continuous');
#344=COLOUR_RGB('',0.800000011920929,0.800000011920929,0.800000011920929);
#345=CARTESIAN_POINT('',(1.00000341340944E-010,11.5,0.0));
#346=VECTOR('',#489,1.0);
#347=PRE_DEFINED_MARKER('');
#348=COLOUR_RGB('',0.800000011920929,0.800000011920929,0.800000011920929);
#349=DRAUGHTING_PRE_DEFINED_CURVE_FONT('continuous');
#350=COLOUR_RGB('',0.800000011920929,0.800000011920929,0.800000011920929);
#351=AXIS2_PLACEMENT_3D('',#490,#491,#492);
#352=DRAUGHTING_PRE_DEFINED_CURVE_FONT('continuous');
#353=COLOUR_RGB('',0.800000011920929,0.800000011920929,0.800000011920929);
#354=CARTESIAN_POINT('',(11.5,12.2999999999,0.0));
#355=VECTOR('',#493,1.0);
#356=SURFACE_SIDE_STYLE('',(#494));
#357=EDGE_LOOP('',(#495,#496,#497,#498,#499,#500,#501,#502));
#358=AXIS2_PLACEMENT_3D('',#503,#504,#505);
#359=DRAUGHTING_PRE_DEFINED_CURVE_FONT('continuous');
#360=COLOUR_RGB('',0.800000011920929,0.800000011920929,0.800000011920929);
#361=CARTESIAN_POINT('',(12.3,0.8,0.0));
#362=VECTOR('',#506,1.0);
#363=DRAUGHTING_PRE_DEFINED_CURVE_FONT('continuous');
#364=COLOUR_RGB('',0.800000011920929,0.800000011920929,0.800000011920929);
#365=CARTESIAN_POINT('',(0.8,0.0,0.0));
#366=VECTOR('',#507,1.0);
#367=DRAUGHTING_PRE_DEFINED_CURVE_FONT('continuous');
#368=COLOUR_RGB('',0.800000011920929,0.800000011920929,0.800000011920929);
#369=CARTESIAN_POINT('',(0.0,0.800000000000001,0.0));
#370=VECTOR('',#508,1.0);
#371=PRE_DEFINED_MARKER('');
#372=COLOUR_RGB('',0.800000011920929,0.800000011920929,0.800000011920929);
#373=PRE_DEFINED_MARKER('');
#374=COLOUR_RGB('',0.800000011920929,0.800000011920929,0.800000011920929);
#375=SURFACE_SIDE_STYLE('',(#509));
#376=EDGE_LOOP('',(#510,#511,#512,#513));
#377=AXIS2_PLACEMENT_3D('',#514,#515,#516);
#378=PRE_DEFINED_MARKER('');
#379=COLOUR_RGB('',0.800000011920929,0.800000011920929,0.800000011920929);
#380=DRAUGHTING_PRE_DEFINED_CURVE_FONT('continuous');
#381=COLOUR_RGB('',0.800000011920929,0.800000011920929,0.800000011920929);
#382=CARTESIAN_POINT('',(11.5,0.0,0.0));
#383=VECTOR('',#517,1.0);
#384=DRAUGHTING_PRE_DEFINED_CURVE_FONT('continuous');
#385=COLOUR_RGB('',0.800000011920929,0.800000011920929,0.800000011920929);
#386=CARTESIAN_POINT('',(0.800000000000001,12.3,0.0));
#387=VECTOR('',#518,1.0);
#388=SURFACE_SIDE_STYLE('',(#519));
#389=EDGE_LOOP('',(#520,#521,#522,#523));
#390=AXIS2_PLACEMENT_3D('',#524,#525,#526);
#391=DRAUGHTING_PRE_DEFINED_CURVE_FONT('continuous');
#392=COLOUR_RGB('',0.800000011920929,0.800000011920929,0.800000011920929);
#393=AXIS2_PLACEMENT_3D('',#527,#528,#529);
#394=DRAUGHTING_PRE_DEFINED_CURVE_FONT('continuous');
#395=COLOUR_RGB('',0.800000011920929,0.800000011920929,0.800000011920929);
#396=AXIS2_PLACEMENT_3D('',#530,#531,#532);
#397=SURFACE_SIDE_STYLE('',(#533));
#398=EDGE_LOOP('',(#534,#535,#536,#537));
#399=AXIS2_PLACEMENT_3D('',#538,#539,#540);
#400=DRAUGHTING_PRE_DEFINED_CURVE_FONT('continuous');
#401=COLOUR_RGB('',0.800000011920929,0.800000011920929,0.800000011920929);
#402=CARTESIAN_POINT('',(12.2999999999,0.8,0.0));
#403=VECTOR('',#541,1.0);
#404=SURFACE_SIDE_STYLE('',(#542));
#405=EDGE_LOOP('',(#543,#544,#545,#546));
#406=AXIS2_PLACEMENT_3D('',#547,#548,#549);
#407=PRE_DEFINED_MARKER('');
#408=COLOUR_RGB('',0.800000011920929,0.800000011920929,0.800000011920929);
#409=DRAUGHTING_PRE_DEFINED_CURVE_FONT('continuous');
#410=COLOUR_RGB('',0.800000011920929,0.800000011920929,0.800000011920929);
#411=CARTESIAN_POINT('',(11.5,12.3,0.0));
#412=VECTOR('',#550,1.0);
#413=PRE_DEFINED_MARKER('');
#414=COLOUR_RGB('',0.800000011920929,0.800000011920929,0.800000011920929);
#415=PRE_DEFINED_MARKER('');
#416=COLOUR_RGB('',0.800000011920929,0.800000011920929,0.800000011920929);
#417=SURFACE_SIDE_STYLE('',(#551));
#418=EDGE_LOOP('',(#552,#553,#554,#555));
#419=AXIS2_PLACEMENT_3D('',#556,#557,#558);
#420=DRAUGHTING_PRE_DEFINED_CURVE_FONT('continuous');
#421=COLOUR_RGB('',0.800000011920929,0.800000011920929,0.800000011920929);
#422=AXIS2_PLACEMENT_3D('',#559,#560,#561);
#423=SURFACE_SIDE_STYLE('',(#562));
#424=EDGE_LOOP('',(#563,#564,#565,#566));
#425=AXIS2_PLACEMENT_3D('',#567,#568,#569);
#426=PRE_DEFINED_MARKER('');
#427=COLOUR_RGB('',0.800000011920929,0.800000011920929,0.800000011920929);
#428=DRAUGHTING_PRE_DEFINED_CURVE_FONT('continuous');
#429=COLOUR_RGB('',0.800000011920929,0.800000011920929,0.800000011920929);
#430=CARTESIAN_POINT('',(11.6860771954855,0.8,-5.0));
#431=VECTOR('',#570,1.0);
#432=PRE_DEFINED_MARKER('');
#433=COLOUR_RGB('',0.800000011920929,0.800000011920929,0.800000011920929);
#434=DRAUGHTING_PRE_DEFINED_CURVE_FONT('continuous');
#435=COLOUR_RGB('',0.800000011920929,0.800000011920929,0.800000011920929);
#436=CARTESIAN_POINT('',(0.613922804514522,11.5,-5.0));
#437=VECTOR('',#571,1.0);
#438=DRAUGHTING_PRE_DEFINED_CURVE_FONT('continuous');
#439=COLOUR_RGB('',0.800000011920929,0.800000011920929,0.800000011920929);
#440=AXIS2_PLACEMENT_3D('',#572,#573,#574);
#441=PRE_DEFINED_MARKER('');
#442=COLOUR_RGB('',0.800000011920929,0.800000011920929,0.800000011920929);
#443=PRE_DEFINED_MARKER('');
#444=COLOUR_RGB('',0.800000011920929,0.800000011920929,0.800000011920929);
#445=PRE_DEFINED_MARKER('');
#446=COLOUR_RGB('',0.800000011920929,0.800000011920929,0.800000011920929);
#447=DRAUGHTING_PRE_DEFINED_CURVE_FONT('continuous');
#448=COLOUR_RGB('',0.800000011920929,0.800000011920929,0.800000011920929);
#449=CARTESIAN_POINT('',(0.8,0.613922804514522,-5.0));
#450=VECTOR('',#575,1.0);
#451=SURFACE_SIDE_STYLE('',(#576));
#452=SURFACE_SIDE_STYLE('',(#577));
#453=EDGE_LOOP('',(#578,#579,#580,#581));
#454=AXIS2_PLACEMENT_3D('',#582,#583,#584);
#455=DRAUGHTING_PRE_DEFINED_CURVE_FONT('continuous');
#456=COLOUR_RGB('',0.800000011920929,0.800000011920929,0.800000011920929);
#457=AXIS2_PLACEMENT_3D('',#585,#586,#587);
#458=DRAUGHTING_PRE_DEFINED_CURVE_FONT('continuous');
#459=COLOUR_RGB('',0.800000011920929,0.800000011920929,0.800000011920929);
#460=AXIS2_PLACEMENT_3D('',#588,#589,#590);
#462=SURFACE_STYLE_FILL_AREA(#591);
#463=ORIENTED_EDGE('',*,*,#153,.T.);
#464=ORIENTED_EDGE('',*,*,#89,.F.);
#465=ORIENTED_EDGE('',*,*,#107,.F.);
#466=ORIENTED_EDGE('',*,*,#133,.T.);
#467=CARTESIAN_POINT('',(12.2999999999,0.8,0.0));
#468=DIRECTION('',(0.992546151643723,-0.0,-0.121869343385591));
#469=DIRECTION('',(-0.0,-1.0,0.0));
#470=DIRECTION('',(-1.0,0.0,0.0));
#471=DIRECTION('',(1.0,0.0,0.0));
#472=DIRECTION('',(-0.121869343424703,-1.52343813614864E-011,-0.992546151638921));
#473=SURFACE_STYLE_FILL_AREA(#592);
#474=ORIENTED_EDGE('',*,*,#101,.F.);
#475=ORIENTED_EDGE('',*,*,#167,.F.);
#476=ORIENTED_EDGE('',*,*,#159,.F.);
#477=ORIENTED_EDGE('',*,*,#157,.F.);
#478=ORIENTED_EDGE('',*,*,#127,.F.);
#479=ORIENTED_EDGE('',*,*,#79,.F.);
#480=ORIENTED_EDGE('',*,*,#173,.F.);
#481=ORIENTED_EDGE('',*,*,#153,.F.);
#482=CARTESIAN_POINT('',(6.15,6.15,-5.0));
#483=DIRECTION('',(0.0,0.0,1.0));
#484=DIRECTION('',(1.0,0.0,0.0));
#485=CARTESIAN_POINT('',(11.4999999999,0.800000000100001,0.0));
#486=DIRECTION('',(0.0,0.0,1.0));
#487=DIRECTION('',(1.25000010342546E-010,-1.0,0.0));
#488=DIRECTION('',(0.0,-1.0,0.0));
#489=DIRECTION('',(0.121869343385591,0.0,-0.992546151643723));
#490=CARTESIAN_POINT('',(11.4999999999,0.800000000100001,-5.0));
#491=DIRECTION('',(0.0,0.0,1.0));
#492=DIRECTION('',(1.25000010342546E-010,-1.0,0.0));
#493=DIRECTION('',(0.0,-0.121869343385591,-0.992546151643723));
#494=SURFACE_STYLE_FILL_AREA(#593);
#495=ORIENTED_EDGE('',*,*,#83,.T.);
#496=ORIENTED_EDGE('',*,*,#93,.T.);
#497=ORIENTED_EDGE('',*,*,#107,.T.);
#498=ORIENTED_EDGE('',*,*,#175,.T.);
#499=ORIENTED_EDGE('',*,*,#139,.T.);
#500=ORIENTED_EDGE('',*,*,#147,.T.);
#501=ORIENTED_EDGE('',*,*,#95,.T.);
#502=ORIENTED_EDGE('',*,*,#129,.T.);
#503=CARTESIAN_POINT('',(6.15,6.15,0.0));
#504=DIRECTION('',(0.0,0.0,1.0));
#505=DIRECTION('',(1.0,0.0,0.0));
#506=DIRECTION('',(0.0,1.0,0.0));
#507=DIRECTION('',(0.0,0.121869343405147,-0.992546151641322));
#508=DIRECTION('',(0.121869343424703,1.52335218423657E-011,-0.992546151638921));
#509=SURFACE_STYLE_FILL_AREA(#594);
#510=ORIENTED_EDGE('',*,*,#173,.T.);
#511=ORIENTED_EDGE('',*,*,#103,.F.);
#512=ORIENTED_EDGE('',*,*,#175,.F.);
#513=ORIENTED_EDGE('',*,*,#89,.T.);
#514=CARTESIAN_POINT('',(11.4999999999,11.4999999999,0.0));
#515=DIRECTION('',(-0.0,-0.0,1.0));
#516=DIRECTION('',(1.0,1.25004451234644E-010,0.0));
#517=DIRECTION('',(-1.52336761150284E-011,0.121869343424703,-0.992546151638921));
#518=DIRECTION('',(1.52342711667273E-011,-0.121869343424703,-0.992546151638921));
#519=SURFACE_STYLE_FILL_AREA(#595);
#520=ORIENTED_EDGE('',*,*,#157,.T.);
#521=ORIENTED_EDGE('',*,*,#111,.F.);
#522=ORIENTED_EDGE('',*,*,#95,.F.);
#523=ORIENTED_EDGE('',*,*,#97,.T.);
#524=CARTESIAN_POINT('',(1.00000341340944E-010,11.5,0.0));
#525=DIRECTION('',(-0.992546151643723,0.0,-0.121869343385591));
#526=DIRECTION('',(0.0,1.0,0.0));
#527=CARTESIAN_POINT('',(0.800000000100005,11.4999999999,-5.0));
#528=DIRECTION('',(0.0,0.0,1.0));
#529=DIRECTION('',(-1.25005977791303E-010,1.0,0.0));
#530=CARTESIAN_POINT('',(0.8000000001,0.8000000001,0.0));
#531=DIRECTION('',(0.0,0.0,1.0));
#532=DIRECTION('',(-1.0,-1.24999455231034E-010,0.0));
#533=SURFACE_STYLE_FILL_AREA(#596);
#534=ORIENTED_EDGE('',*,*,#101,.T.);
#535=ORIENTED_EDGE('',*,*,#133,.F.);
#536=ORIENTED_EDGE('',*,*,#93,.F.);
#537=ORIENTED_EDGE('',*,*,#121,.T.);
#538=CARTESIAN_POINT('',(11.4999999999,0.800000000100001,0.0));
#539=DIRECTION('',(-0.0,-0.0,1.0));
#540=DIRECTION('',(1.25000010342546E-010,-1.0,0.0));
#541=DIRECTION('',(-0.121869343385591,0.0,-0.992546151643723));
#542=SURFACE_STYLE_FILL_AREA(#597);
#543=ORIENTED_EDGE('',*,*,#127,.T.);
#544=ORIENTED_EDGE('',*,*,#97,.F.);
#545=ORIENTED_EDGE('',*,*,#147,.F.);
#546=ORIENTED_EDGE('',*,*,#123,.T.);
#547=CARTESIAN_POINT('',(0.800000000100005,11.4999999999,0.0));
#548=DIRECTION('',(-0.0,-0.0,1.0));
#549=DIRECTION('',(-1.25005977791303E-010,1.0,0.0));
#550=DIRECTION('',(-1.0,0.0,0.0));
#551=SURFACE_STYLE_FILL_AREA(#598);
#552=ORIENTED_EDGE('',*,*,#79,.T.);
#553=ORIENTED_EDGE('',*,*,#123,.F.);
#554=ORIENTED_EDGE('',*,*,#139,.F.);
#555=ORIENTED_EDGE('',*,*,#103,.T.);
#556=CARTESIAN_POINT('',(11.5,12.2999999999,0.0));
#557=DIRECTION('',(0.0,0.992546151643723,-0.121869343385591));
#558=DIRECTION('',(1.0,-0.0,0.0));
#559=CARTESIAN_POINT('',(0.800000000100005,11.4999999999,0.0));
#560=DIRECTION('',(0.0,0.0,1.0));
#561=DIRECTION('',(-1.25005977791303E-010,1.0,0.0));
#562=SURFACE_STYLE_FILL_AREA(#599);
#563=ORIENTED_EDGE('',*,*,#167,.T.);
#564=ORIENTED_EDGE('',*,*,#121,.F.);
#565=ORIENTED_EDGE('',*,*,#83,.F.);
#566=ORIENTED_EDGE('',*,*,#109,.T.);
#567=CARTESIAN_POINT('',(0.8,0.0,0.0));
#568=DIRECTION('',(-0.0,-0.992546151641322,-0.121869343405147));
#569=DIRECTION('',(-1.0,0.0,0.0));
#570=DIRECTION('',(0.0,1.0,0.0));
#571=DIRECTION('',(0.0,-1.0,0.0));
#572=CARTESIAN_POINT('',(0.8000000001,0.8000000001,-5.0));
#573=DIRECTION('',(0.0,0.0,1.0));
#574=DIRECTION('',(-1.0,-1.24999455231034E-010,0.0));
#575=DIRECTION('',(1.0,0.0,0.0));
#576=SURFACE_STYLE_FILL_AREA(#600);
#577=SURFACE_STYLE_FILL_AREA(#601);
#578=ORIENTED_EDGE('',*,*,#159,.T.);
#579=ORIENTED_EDGE('',*,*,#109,.F.);
#580=ORIENTED_EDGE('',*,*,#129,.F.);
#581=ORIENTED_EDGE('',*,*,#111,.T.);
#582=CARTESIAN_POINT('',(0.8000000001,0.8000000001,0.0));
#583=DIRECTION('',(0.0,-0.0,1.0));
#584=DIRECTION('',(-1.0,-1.24999455231034E-010,0.0));
#585=CARTESIAN_POINT('',(11.4999999999,11.4999999999,-5.0));
#586=DIRECTION('',(0.0,-0.0,1.0));
#587=DIRECTION('',(1.0,1.25004451234644E-010,0.0));
#588=CARTESIAN_POINT('',(11.4999999999,11.4999999999,0.0));
#589=DIRECTION('',(0.0,-0.0,1.0));
#590=DIRECTION('',(1.0,1.25004451234644E-010,0.0));
#591=FILL_AREA_STYLE('',(#602));
#592=FILL_AREA_STYLE('',(#603));
#593=FILL_AREA_STYLE('',(#604));
#594=FILL_AREA_STYLE('',(#605));
#595=FILL_AREA_STYLE('',(#606));
#596=FILL_AREA_STYLE('',(#607));
#597=FILL_AREA_STYLE('',(#608));
#598=FILL_AREA_STYLE('',(#609));
#599=FILL_AREA_STYLE('',(#610));
#600=FILL_AREA_STYLE('',(#611));
#601=FILL_AREA_STYLE('',(#612));
#602=FILL_AREA_STYLE_COLOUR('',#613);
#603=FILL_AREA_STYLE_COLOUR('',#614);
#604=FILL_AREA_STYLE_COLOUR('',#615);
#605=FILL_AREA_STYLE_COLOUR('',#616);
#606=FILL_AREA_STYLE_COLOUR('',#617);
#607=FILL_AREA_STYLE_COLOUR('',#618);
#608=FILL_AREA_STYLE_COLOUR('',#619);
#609=FILL_AREA_STYLE_COLOUR('',#620);
#610=FILL_AREA_STYLE_COLOUR('',#621);
#611=FILL_AREA_STYLE_COLOUR('',#622);
#612=FILL_AREA_STYLE_COLOUR('',#623);
#613=COLOUR_RGB('',0.800000011920929,0.800000011920929,0.800000011920929);
#614=COLOUR_RGB('',0.800000011920929,0.800000011920929,0.800000011920929);
#615=COLOUR_RGB('',0.800000011920929,0.800000011920929,0.800000011920929);
#616=COLOUR_RGB('',0.800000011920929,0.800000011920929,0.800000011920929);
#617=COLOUR_RGB('',0.800000011920929,0.800000011920929,0.800000011920929);
#618=COLOUR_RGB('',0.800000011920929,0.800000011920929,0.800000011920929);
#619=COLOUR_RGB('',0.800000011920929,0.800000011920929,0.800000011920929);
#620=COLOUR_RGB('',0.800000011920929,0.800000011920929,0.800000011920929);
#621=COLOUR_RGB('',0.800000011920929,0.800000011920929,0.800000011920929);
#622=COLOUR_RGB('',0.800000011920929,0.800000011920929,0.800000011920929);
#623=COLOUR_RGB('',0.800000011920929,0.800000011920929,0.800000011920929);
#624=AXIS2_PLACEMENT_3D('PCS',#625,#626,#627);
#625=CARTESIAN_POINT('',(0.0,0.0,0.0));
#626=DIRECTION('',(0.0,0.0,1.0));
#627=DIRECTION('',(1.0,0.0,0.0));
#628=AXIS2_PLACEMENT_3D('MCS',#629,#630,#631);
#629=CARTESIAN_POINT('',(6.15,6.15,0.0));
#630=DIRECTION('',(0.0,0.0,1.0));
#631=DIRECTION('',(1.0,0.0,0.0));
#632=CONSTRUCTIVE_GEOMETRY_REPRESENTATION_RELATIONSHIP('coordinate systems',$,#65,#633);
#633=CONSTRUCTIVE_GEOMETRY_REPRESENTATION('coordinate systems',(#624,#628),#6);
ENDSEC;
END-ISO-10303-21;
