ISO-10303-21;
HEADER;
FILE_DESCRIPTION(('no description'),'unknown implementation level');
FILE_NAME('solidWhH9bPV34Qtz_7nVIOlYWAHDEkk_1.STP','  ',('CIMSOURCE GmbH'),('CADClick - KiM GmbH - www.kimweb.de'),'unknown preprocess','ACIS','unknown authorization');
FILE_SCHEMA(('automotive_design'));
ENDSEC;
DATA;
#1=MECHANICAL_DESIGN_GEOMETRIC_PRESENTATION_REPRESENTATION(' ',(#10,#11,#12,#13,#14,#15,#16,#17,#18,#19,#20,#21,#22,#23,#24,#25,#26,#27,#28,#29,#30,#31,#32,#33,#34,#35,#36,#37,#38,#39,#40,#41,#42,#43,#44,#45,#46,#47,#48,#49,#50,#51,#52,#53,#54,#55,#56,#57,#58,#59,#60),#6);
#2=PRODUCT_DEFINITION_CONTEXT('',#61,'design');
#3=APPLICATION_PROTOCOL_DEFINITION('INTERNATIONAL STANDARD','automotive_design',1994,#61);
#4=PRODUCT_CATEGORY_RELATIONSHIP('NONE','NONE',#62,#63);
#5=SHAPE_DEFINITION_REPRESENTATION(#64,#65);
#6= (GEOMETRIC_REPRESENTATION_CONTEXT(3)GLOBAL_UNCERTAINTY_ASSIGNED_CONTEXT((#68))GLOBAL_UNIT_ASSIGNED_CONTEXT((#70,#71,#72))REPRESENTATION_CONTEXT('NONE','WORKSPACE'));
#10=STYLED_ITEM('',(#74),#75);
#11=STYLED_ITEM('',(#76),#77);
#12=STYLED_ITEM('',(#78),#79);
#13=STYLED_ITEM('',(#80),#81);
#14=STYLED_ITEM('',(#82),#83);
#15=STYLED_ITEM('',(#84),#85);
#16=STYLED_ITEM('',(#86),#87);
#17=STYLED_ITEM('',(#88),#89);
#18=STYLED_ITEM('',(#90),#91);
#19=STYLED_ITEM('',(#92),#93);
#20=STYLED_ITEM('',(#94),#95);
#21=STYLED_ITEM('',(#96),#97);
#22=STYLED_ITEM('',(#98),#99);
#23=STYLED_ITEM('',(#100),#101);
#24=STYLED_ITEM('',(#102),#103);
#25=STYLED_ITEM('',(#104),#105);
#26=STYLED_ITEM('',(#106),#107);
#27=STYLED_ITEM('',(#108),#109);
#28=STYLED_ITEM('',(#110),#111);
#29=STYLED_ITEM('',(#112),#113);
#30=STYLED_ITEM('',(#114),#115);
#31=STYLED_ITEM('',(#116),#117);
#32=STYLED_ITEM('',(#118),#119);
#33=STYLED_ITEM('',(#120),#121);
#34=STYLED_ITEM('',(#122),#123);
#35=STYLED_ITEM('',(#124),#125);
#36=STYLED_ITEM('',(#126),#127);
#37=STYLED_ITEM('',(#128),#129);
#38=STYLED_ITEM('',(#130),#131);
#39=STYLED_ITEM('',(#132),#133);
#40=STYLED_ITEM('',(#134),#135);
#41=STYLED_ITEM('',(#136),#137);
#42=STYLED_ITEM('',(#138),#139);
#43=STYLED_ITEM('',(#140),#141);
#44=STYLED_ITEM('',(#142),#143);
#45=STYLED_ITEM('',(#144),#145);
#46=STYLED_ITEM('',(#146),#147);
#47=STYLED_ITEM('',(#148),#149);
#48=STYLED_ITEM('',(#150),#151);
#49=STYLED_ITEM('',(#152),#153);
#50=STYLED_ITEM('',(#154),#155);
#51=STYLED_ITEM('',(#156),#157);
#52=STYLED_ITEM('',(#158),#159);
#53=STYLED_ITEM('',(#160),#161);
#54=STYLED_ITEM('',(#162),#163);
#55=STYLED_ITEM('',(#164),#165);
#56=STYLED_ITEM('',(#166),#167);
#57=STYLED_ITEM('',(#168),#169);
#58=STYLED_ITEM('',(#170),#171);
#59=STYLED_ITEM('',(#172),#173);
#60=STYLED_ITEM('',(#174),#175);
#61=APPLICATION_CONTEXT(' ');
#62=PRODUCT_CATEGORY('part','NONE');
#63=PRODUCT_RELATED_PRODUCT_CATEGORY('detail',' ',(#176));
#64=PRODUCT_DEFINITION_SHAPE('NONE','NONE',#177);
#65=ADVANCED_BREP_SHAPE_REPRESENTATION('1',(#125,#178),#6);
#68=UNCERTAINTY_MEASURE_WITH_UNIT(LENGTH_MEASURE(1.0E-006),#70,'','');
#70= (CONVERSION_BASED_UNIT('MILLIMETRE',#181)LENGTH_UNIT()NAMED_UNIT(#184));
#71= (NAMED_UNIT(#186)PLANE_ANGLE_UNIT()SI_UNIT($,.RADIAN.));
#72= (NAMED_UNIT(#186)SOLID_ANGLE_UNIT()SI_UNIT($,.STERADIAN.));
#74=PRESENTATION_STYLE_ASSIGNMENT((#192));
#75=EDGE_CURVE('',#81,#131,#193,.T.);
#76=PRESENTATION_STYLE_ASSIGNMENT((#194));
#77=EDGE_CURVE('',#105,#81,#195,.T.);
#78=PRESENTATION_STYLE_ASSIGNMENT((#196));
#79=ADVANCED_FACE('',(#197),#198,.T.);
#80=PRESENTATION_STYLE_ASSIGNMENT((#199));
#81=VERTEX_POINT('',#200);
#82=PRESENTATION_STYLE_ASSIGNMENT((#201));
#83=EDGE_CURVE('',#161,#121,#202,.T.);
#84=PRESENTATION_STYLE_ASSIGNMENT((#203));
#85=VERTEX_POINT('',#204);
#86=PRESENTATION_STYLE_ASSIGNMENT((#205));
#87=VERTEX_POINT('',#206);
#88=PRESENTATION_STYLE_ASSIGNMENT((#207));
#89=ADVANCED_FACE('',(#208),#209,.F.);
#90=PRESENTATION_STYLE_ASSIGNMENT((#210));
#91=EDGE_CURVE('',#167,#113,#211,.T.);
#92=PRESENTATION_STYLE_ASSIGNMENT((#212));
#93=VERTEX_POINT('',#213);
#94=PRESENTATION_STYLE_ASSIGNMENT((#214));
#95=EDGE_CURVE('',#93,#161,#215,.T.);
#96=PRESENTATION_STYLE_ASSIGNMENT((#216));
#97=EDGE_CURVE('',#87,#85,#217,.T.);
#98=PRESENTATION_STYLE_ASSIGNMENT((#218));
#99=EDGE_CURVE('',#85,#167,#219,.T.);
#100=PRESENTATION_STYLE_ASSIGNMENT((#220));
#101=ADVANCED_FACE('',(#221),#222,.T.);
#102=PRESENTATION_STYLE_ASSIGNMENT((#223));
#103=EDGE_CURVE('',#159,#123,#224,.T.);
#104=PRESENTATION_STYLE_ASSIGNMENT((#225));
#105=VERTEX_POINT('',#226);
#106=PRESENTATION_STYLE_ASSIGNMENT((#227));
#107=EDGE_CURVE('',#109,#113,#228,.T.);
#108=PRESENTATION_STYLE_ASSIGNMENT((#229));
#109=VERTEX_POINT('',#230);
#110=PRESENTATION_STYLE_ASSIGNMENT((#231));
#111=ADVANCED_FACE('',(#232),#233,.T.);
#112=PRESENTATION_STYLE_ASSIGNMENT((#234));
#113=VERTEX_POINT('',#235);
#114=PRESENTATION_STYLE_ASSIGNMENT((#236));
#115=ADVANCED_FACE('',(#237),#238,.T.);
#116=PRESENTATION_STYLE_ASSIGNMENT((#239));
#117=ADVANCED_FACE('',(#240),#241,.T.);
#118=PRESENTATION_STYLE_ASSIGNMENT((#242));
#119=EDGE_CURVE('',#129,#93,#243,.T.);
#120=PRESENTATION_STYLE_ASSIGNMENT((#244));
#121=VERTEX_POINT('',#245);
#122=PRESENTATION_STYLE_ASSIGNMENT((#246));
#123=VERTEX_POINT('',#247);
#124=PRESENTATION_STYLE_ASSIGNMENT((#248));
#125=MANIFOLD_SOLID_BREP('1',#249);
#126=PRESENTATION_STYLE_ASSIGNMENT((#250));
#127=EDGE_CURVE('',#141,#171,#251,.T.);
#128=PRESENTATION_STYLE_ASSIGNMENT((#252));
#129=VERTEX_POINT('',#253);
#130=PRESENTATION_STYLE_ASSIGNMENT((#254));
#131=VERTEX_POINT('',#255);
#132=PRESENTATION_STYLE_ASSIGNMENT((#256));
#133=EDGE_CURVE('',#87,#131,#257,.T.);
#134=PRESENTATION_STYLE_ASSIGNMENT((#258));
#135=ADVANCED_FACE('',(#259),#260,.T.);
#136=PRESENTATION_STYLE_ASSIGNMENT((#261));
#137=EDGE_CURVE('',#113,#129,#262,.T.);
#138=PRESENTATION_STYLE_ASSIGNMENT((#263));
#139=EDGE_CURVE('',#85,#109,#264,.T.);
#140=PRESENTATION_STYLE_ASSIGNMENT((#265));
#141=VERTEX_POINT('',#266);
#142=PRESENTATION_STYLE_ASSIGNMENT((#267));
#143=ADVANCED_FACE('',(#268),#269,.T.);
#144=PRESENTATION_STYLE_ASSIGNMENT((#270));
#145=EDGE_CURVE('',#105,#87,#271,.T.);
#146=PRESENTATION_STYLE_ASSIGNMENT((#272));
#147=ADVANCED_FACE('',(#273),#274,.T.);
#148=PRESENTATION_STYLE_ASSIGNMENT((#275));
#149=EDGE_CURVE('',#159,#161,#276,.T.);
#150=PRESENTATION_STYLE_ASSIGNMENT((#277));
#151=EDGE_CURVE('',#123,#121,#278,.T.);
#152=PRESENTATION_STYLE_ASSIGNMENT((#279));
#153=EDGE_CURVE('',#121,#81,#280,.T.);
#154=PRESENTATION_STYLE_ASSIGNMENT((#281));
#155=EDGE_CURVE('',#123,#105,#282,.T.);
#156=PRESENTATION_STYLE_ASSIGNMENT((#283));
#157=EDGE_CURVE('',#167,#141,#284,.T.);
#158=PRESENTATION_STYLE_ASSIGNMENT((#285));
#159=VERTEX_POINT('',#286);
#160=PRESENTATION_STYLE_ASSIGNMENT((#287));
#161=VERTEX_POINT('',#288);
#162=PRESENTATION_STYLE_ASSIGNMENT((#289));
#163=EDGE_CURVE('',#171,#93,#290,.T.);
#164=PRESENTATION_STYLE_ASSIGNMENT((#291));
#165=EDGE_CURVE('',#141,#129,#292,.T.);
#166=PRESENTATION_STYLE_ASSIGNMENT((#293));
#167=VERTEX_POINT('',#294);
#168=PRESENTATION_STYLE_ASSIGNMENT((#295));
#169=EDGE_CURVE('',#171,#159,#296,.T.);
#170=PRESENTATION_STYLE_ASSIGNMENT((#297));
#171=VERTEX_POINT('',#298);
#172=PRESENTATION_STYLE_ASSIGNMENT((#299));
#173=EDGE_CURVE('',#131,#109,#300,.T.);
#174=PRESENTATION_STYLE_ASSIGNMENT((#301));
#175=ADVANCED_FACE('',(#302),#303,.T.);
#176=PRODUCT('1','1','PART-1-DESC',(#304));
#177=PRODUCT_DEFINITION('NONE','NONE',#305,#2);
#178=AXIS2_PLACEMENT_3D('',#306,#307,#308);
#181=LENGTH_MEASURE_WITH_UNIT(LENGTH_MEASURE(1.0),#309);
#184=DIMENSIONAL_EXPONENTS(1.0,0.0,0.0,0.0,0.0,0.0,0.0);
#186=DIMENSIONAL_EXPONENTS(0.0,0.0,0.0,0.0,0.0,0.0,0.0);
#192=CURVE_STYLE('',#310,POSITIVE_LENGTH_MEASURE(1.0E-006),#311);
#193=LINE('',#312,#313);
#194=CURVE_STYLE('',#314,POSITIVE_LENGTH_MEASURE(1.0E-006),#315);
#195=LINE('',#316,#317);
#196=SURFACE_STYLE_USAGE(.BOTH.,#318);
#197=FACE_OUTER_BOUND('',#319,.T.);
#198=PLANE('',#320);
#199=POINT_STYLE(' ',#321,POSITIVE_LENGTH_MEASURE(1.0E-006),#322);
#200=CARTESIAN_POINT('',(-2.58094233229755E-006,13.2990602486691,-7.18));
#201=CURVE_STYLE('',#323,POSITIVE_LENGTH_MEASURE(1.0E-006),#324);
#202=LINE('',#325,#326);
#203=POINT_STYLE(' ',#327,POSITIVE_LENGTH_MEASURE(1.0E-006),#328);
#204=CARTESIAN_POINT('',(2.58094233227323,0.0,0.0));
#205=POINT_STYLE(' ',#329,POSITIVE_LENGTH_MEASURE(1.0E-006),#330);
#206=CARTESIAN_POINT('',(2.5809423323E-006,2.5809397513309,0.0));
#207=SURFACE_STYLE_USAGE(.BOTH.,#331);
#208=FACE_OUTER_BOUND('',#332,.T.);
#209=PLANE('',#333);
#210=CURVE_STYLE('',#334,POSITIVE_LENGTH_MEASURE(1.0E-006),#335);
#211=LINE('',#336,#337);
#212=POINT_STYLE(' ',#338,POSITIVE_LENGTH_MEASURE(1.0E-006),#339);
#213=CARTESIAN_POINT('',(15.8799974190577,13.2990602486691,-7.18));
#214=CURVE_STYLE('',#340,POSITIVE_LENGTH_MEASURE(1.0E-006),#341);
#215=LINE('',#342,#343);
#216=CURVE_STYLE('',#344,POSITIVE_LENGTH_MEASURE(1.0E-006),#345);
#217=LINE('',#346,#347);
#218=CURVE_STYLE('',#348,POSITIVE_LENGTH_MEASURE(1.0E-006),#349);
#219=LINE('',#350,#351);
#220=SURFACE_STYLE_USAGE(.BOTH.,#352);
#221=FACE_OUTER_BOUND('',#353,.T.);
#222=PLANE('',#354);
#223=CURVE_STYLE('',#355,POSITIVE_LENGTH_MEASURE(1.0E-006),#356);
#224=LINE('',#357,#358);
#225=POINT_STYLE(' ',#359,POSITIVE_LENGTH_MEASURE(1.0E-006),#360);
#226=CARTESIAN_POINT('',(-2.58094233229755E-006,13.2990602486691,0.0));
#227=CURVE_STYLE('',#361,POSITIVE_LENGTH_MEASURE(1.0E-006),#362);
#228=LINE('',#363,#364);
#229=POINT_STYLE(' ',#365,POSITIVE_LENGTH_MEASURE(1.0E-006),#366);
#230=CARTESIAN_POINT('',(2.58094233227323,0.0,-7.18));
#231=SURFACE_STYLE_USAGE(.BOTH.,#367);
#232=FACE_OUTER_BOUND('',#368,.T.);
#233=PLANE('',#369);
#234=POINT_STYLE(' ',#370,POSITIVE_LENGTH_MEASURE(1.0E-006),#371);
#235=CARTESIAN_POINT('',(13.2990628296114,0.0,-7.18));
#236=SURFACE_STYLE_USAGE(.BOTH.,#372);
#237=FACE_OUTER_BOUND('',#373,.T.);
#238=PLANE('',#374);
#239=SURFACE_STYLE_USAGE(.BOTH.,#375);
#240=FACE_OUTER_BOUND('',#376,.T.);
#241=PLANE('',#377);
#242=CURVE_STYLE('',#378,POSITIVE_LENGTH_MEASURE(1.0E-006),#379);
#243=LINE('',#380,#381);
#244=POINT_STYLE(' ',#382,POSITIVE_LENGTH_MEASURE(1.0E-006),#383);
#245=CARTESIAN_POINT('',(2.58093717038857,15.88,-7.18));
#246=POINT_STYLE(' ',#384,POSITIVE_LENGTH_MEASURE(1.0E-006),#385);
#247=CARTESIAN_POINT('',(2.58093717038857,15.88,0.0));
#248=SURFACE_STYLE_USAGE(.BOTH.,#386);
#249=CLOSED_SHELL('',(#135,#115,#175,#101,#143,#111,#147,#117,#89,#79));
#250=CURVE_STYLE('',#387,POSITIVE_LENGTH_MEASURE(1.0E-006),#388);
#251=LINE('',#389,#390);
#252=POINT_STYLE(' ',#391,POSITIVE_LENGTH_MEASURE(1.0E-006),#392);
#253=CARTESIAN_POINT('',(15.8800025809423,2.5809397513309,-7.18));
#254=POINT_STYLE(' ',#393,POSITIVE_LENGTH_MEASURE(1.0E-006),#394);
#255=CARTESIAN_POINT('',(2.5809423323E-006,2.5809397513309,-7.18));
#256=CURVE_STYLE('',#395,POSITIVE_LENGTH_MEASURE(1.0E-006),#396);
#257=LINE('',#397,#398);
#258=SURFACE_STYLE_USAGE(.BOTH.,#399);
#259=FACE_OUTER_BOUND('',#400,.T.);
#260=PLANE('',#401);
#261=CURVE_STYLE('',#402,POSITIVE_LENGTH_MEASURE(1.0E-006),#403);
#262=LINE('',#404,#405);
#263=CURVE_STYLE('',#406,POSITIVE_LENGTH_MEASURE(1.0E-006),#407);
#264=LINE('',#408,#409);
#265=POINT_STYLE(' ',#410,POSITIVE_LENGTH_MEASURE(1.0E-006),#411);
#266=CARTESIAN_POINT('',(15.8800025809423,2.5809397513309,0.0));
#267=SURFACE_STYLE_USAGE(.BOTH.,#412);
#268=FACE_OUTER_BOUND('',#413,.T.);
#269=PLANE('',#414);
#270=CURVE_STYLE('',#415,POSITIVE_LENGTH_MEASURE(1.0E-006),#416);
#271=LINE('',#417,#418);
#272=SURFACE_STYLE_USAGE(.BOTH.,#419);
#273=FACE_OUTER_BOUND('',#420,.T.);
#274=PLANE('',#421);
#275=CURVE_STYLE('',#422,POSITIVE_LENGTH_MEASURE(1.0E-006),#423);
#276=LINE('',#424,#425);
#277=CURVE_STYLE('',#426,POSITIVE_LENGTH_MEASURE(1.0E-006),#427);
#278=LINE('',#428,#429);
#279=CURVE_STYLE('',#430,POSITIVE_LENGTH_MEASURE(1.0E-006),#431);
#280=LINE('',#432,#433);
#281=CURVE_STYLE('',#434,POSITIVE_LENGTH_MEASURE(1.0E-006),#435);
#282=LINE('',#436,#437);
#283=CURVE_STYLE('',#438,POSITIVE_LENGTH_MEASURE(1.0E-006),#439);
#284=LINE('',#440,#441);
#285=POINT_STYLE(' ',#442,POSITIVE_LENGTH_MEASURE(1.0E-006),#443);
#286=CARTESIAN_POINT('',(13.2990576677268,15.88,0.0));
#287=POINT_STYLE(' ',#444,POSITIVE_LENGTH_MEASURE(1.0E-006),#445);
#288=CARTESIAN_POINT('',(13.2990576677268,15.88,-7.18));
#289=CURVE_STYLE('',#446,POSITIVE_LENGTH_MEASURE(1.0E-006),#447);
#290=LINE('',#448,#449);
#291=CURVE_STYLE('',#450,POSITIVE_LENGTH_MEASURE(1.0E-006),#451);
#292=LINE('',#452,#453);
#293=POINT_STYLE(' ',#454,POSITIVE_LENGTH_MEASURE(1.0E-006),#455);
#294=CARTESIAN_POINT('',(13.2990628296114,0.0,0.0));
#295=CURVE_STYLE('',#456,POSITIVE_LENGTH_MEASURE(1.0E-006),#457);
#296=LINE('',#458,#459);
#297=POINT_STYLE(' ',#460,POSITIVE_LENGTH_MEASURE(1.0E-006),#461);
#298=CARTESIAN_POINT('',(15.8799974190577,13.2990602486691,0.0));
#299=CURVE_STYLE('',#462,POSITIVE_LENGTH_MEASURE(1.0E-006),#463);
#300=LINE('',#464,#465);
#301=SURFACE_STYLE_USAGE(.BOTH.,#466);
#302=FACE_OUTER_BOUND('',#467,.T.);
#303=PLANE('',#468);
#304=PRODUCT_CONTEXT('',#61,'mechanical');
#305=PRODUCT_DEFINITION_FORMATION_WITH_SPECIFIED_SOURCE(' ','NONE',#176,.NOT_KNOWN.);
#306=CARTESIAN_POINT('',(0.0,0.0,0.0));
#307=DIRECTION('',(0.0,0.0,1.0));
#308=DIRECTION('',(1.0,0.0,0.0));
#309= (NAMED_UNIT(#184)LENGTH_UNIT()SI_UNIT(.MILLI.,.METRE.));
#310=DRAUGHTING_PRE_DEFINED_CURVE_FONT('continuous');
#311=COLOUR_RGB('',0.800000011920929,0.800000011920929,0.800000011920929);
#312=CARTESIAN_POINT('',(-2.5809423323E-006,13.2990602486691,-7.18));
#313=VECTOR('',#470,1.0);
#314=DRAUGHTING_PRE_DEFINED_CURVE_FONT('continuous');
#315=COLOUR_RGB('',0.800000011920929,0.800000011920929,0.800000011920929);
#316=CARTESIAN_POINT('',(-2.58094233229755E-006,13.2990602486691,0.0));
#317=VECTOR('',#471,1.0);
#318=SURFACE_SIDE_STYLE('',(#472));
#319=EDGE_LOOP('',(#473,#474,#475,#476,#477,#478,#479,#480));
#320=AXIS2_PLACEMENT_3D('',#481,#482,#483);
#321=PRE_DEFINED_MARKER('');
#322=COLOUR_RGB('',0.800000011920929,0.800000011920929,0.800000011920929);
#323=DRAUGHTING_PRE_DEFINED_CURVE_FONT('continuous');
#324=COLOUR_RGB('',0.800000011920929,0.800000011920929,0.800000011920929);
#325=CARTESIAN_POINT('',(13.2990576677268,15.88,-7.18));
#326=VECTOR('',#484,1.0);
#327=PRE_DEFINED_MARKER('');
#328=COLOUR_RGB('',0.800000011920929,0.800000011920929,0.800000011920929);
#329=PRE_DEFINED_MARKER('');
#330=COLOUR_RGB('',0.800000011920929,0.800000011920929,0.800000011920929);
#331=SURFACE_SIDE_STYLE('',(#485));
#332=EDGE_LOOP('',(#486,#487,#488,#489,#490,#491,#492,#493));
#333=AXIS2_PLACEMENT_3D('',#494,#495,#496);
#334=DRAUGHTING_PRE_DEFINED_CURVE_FONT('continuous');
#335=COLOUR_RGB('',0.800000011920929,0.800000011920929,0.800000011920929);
#336=CARTESIAN_POINT('',(13.2990628296114,0.0,0.0));
#337=VECTOR('',#497,1.0);
#338=PRE_DEFINED_MARKER('');
#339=COLOUR_RGB('',0.800000011920929,0.800000011920929,0.800000011920929);
#340=DRAUGHTING_PRE_DEFINED_CURVE_FONT('continuous');
#341=COLOUR_RGB('',0.800000011920929,0.800000011920929,0.800000011920929);
#342=CARTESIAN_POINT('',(15.8799974190577,13.2990602486691,-7.18));
#343=VECTOR('',#498,1.0);
#344=DRAUGHTING_PRE_DEFINED_CURVE_FONT('continuous');
#345=COLOUR_RGB('',0.800000011920929,0.800000011920929,0.800000011920929);
#346=CARTESIAN_POINT('',(2.5809423323E-006,2.5809397513309,0.0));
#347=VECTOR('',#499,1.0);
#348=DRAUGHTING_PRE_DEFINED_CURVE_FONT('continuous');
#349=COLOUR_RGB('',0.800000011920929,0.800000011920929,0.800000011920929);
#350=CARTESIAN_POINT('',(2.58094233227323,0.0,0.0));
#351=VECTOR('',#500,1.0);
#352=SURFACE_SIDE_STYLE('',(#501));
#353=EDGE_LOOP('',(#502,#503,#504,#505));
#354=AXIS2_PLACEMENT_3D('',#506,#507,#508);
#355=DRAUGHTING_PRE_DEFINED_CURVE_FONT('continuous');
#356=COLOUR_RGB('',0.800000011920929,0.800000011920929,0.800000011920929);
#357=CARTESIAN_POINT('',(13.2990576677268,15.88,0.0));
#358=VECTOR('',#509,1.0);
#359=PRE_DEFINED_MARKER('');
#360=COLOUR_RGB('',0.800000011920929,0.800000011920929,0.800000011920929);
#361=DRAUGHTING_PRE_DEFINED_CURVE_FONT('continuous');
#362=COLOUR_RGB('',0.800000011920929,0.800000011920929,0.800000011920929);
#363=CARTESIAN_POINT('',(2.58094233227323,0.0,-7.18));
#364=VECTOR('',#510,1.0);
#365=PRE_DEFINED_MARKER('');
#366=COLOUR_RGB('',0.800000011920929,0.800000011920929,0.800000011920929);
#367=SURFACE_SIDE_STYLE('',(#511));
#368=EDGE_LOOP('',(#512,#513,#514,#515));
#369=AXIS2_PLACEMENT_3D('',#516,#517,#518);
#370=PRE_DEFINED_MARKER('');
#371=COLOUR_RGB('',0.800000011920929,0.800000011920929,0.800000011920929);
#372=SURFACE_SIDE_STYLE('',(#519));
#373=EDGE_LOOP('',(#520,#521,#522,#523));
#374=AXIS2_PLACEMENT_3D('',#524,#525,#526);
#375=SURFACE_SIDE_STYLE('',(#527));
#376=EDGE_LOOP('',(#528,#529,#530,#531));
#377=AXIS2_PLACEMENT_3D('',#532,#533,#534);
#378=DRAUGHTING_PRE_DEFINED_CURVE_FONT('continuous');
#379=COLOUR_RGB('',0.800000011920929,0.800000011920929,0.800000011920929);
#380=CARTESIAN_POINT('',(15.8800025809423,2.5809397513309,-7.18));
#381=VECTOR('',#535,1.0);
#382=PRE_DEFINED_MARKER('');
#383=COLOUR_RGB('',0.800000011920929,0.800000011920929,0.800000011920929);
#384=PRE_DEFINED_MARKER('');
#385=COLOUR_RGB('',0.800000011920929,0.800000011920929,0.800000011920929);
#386=SURFACE_SIDE_STYLE('',(#536));
#387=DRAUGHTING_PRE_DEFINED_CURVE_FONT('continuous');
#388=COLOUR_RGB('',0.800000011920929,0.800000011920929,0.800000011920929);
#389=CARTESIAN_POINT('',(15.8800025809423,2.5809397513309,0.0));
#390=VECTOR('',#537,1.0);
#391=PRE_DEFINED_MARKER('');
#392=COLOUR_RGB('',0.800000011920929,0.800000011920929,0.800000011920929);
#393=PRE_DEFINED_MARKER('');
#394=COLOUR_RGB('',0.800000011920929,0.800000011920929,0.800000011920929);
#395=DRAUGHTING_PRE_DEFINED_CURVE_FONT('continuous');
#396=COLOUR_RGB('',0.800000011920929,0.800000011920929,0.800000011920929);
#397=CARTESIAN_POINT('',(2.5809423323E-006,2.5809397513309,0.0));
#398=VECTOR('',#538,1.0);
#399=SURFACE_SIDE_STYLE('',(#539));
#400=EDGE_LOOP('',(#540,#541,#542,#543));
#401=AXIS2_PLACEMENT_3D('',#544,#545,#546);
#402=DRAUGHTING_PRE_DEFINED_CURVE_FONT('continuous');
#403=COLOUR_RGB('',0.800000011920929,0.800000011920929,0.800000011920929);
#404=CARTESIAN_POINT('',(13.2990628296114,0.0,-7.18));
#405=VECTOR('',#547,1.0);
#406=DRAUGHTING_PRE_DEFINED_CURVE_FONT('continuous');
#407=COLOUR_RGB('',0.800000011920929,0.800000011920929,0.800000011920929);
#408=CARTESIAN_POINT('',(2.58094233227323,0.0,0.0));
#409=VECTOR('',#548,1.0);
#410=PRE_DEFINED_MARKER('');
#411=COLOUR_RGB('',0.800000011920929,0.800000011920929,0.800000011920929);
#412=SURFACE_SIDE_STYLE('',(#549));
#413=EDGE_LOOP('',(#550,#551,#552,#553));
#414=AXIS2_PLACEMENT_3D('',#554,#555,#556);
#415=DRAUGHTING_PRE_DEFINED_CURVE_FONT('continuous');
#416=COLOUR_RGB('',0.800000011920929,0.800000011920929,0.800000011920929);
#417=CARTESIAN_POINT('',(-2.5809423323E-006,13.2990602486691,0.0));
#418=VECTOR('',#557,1.0);
#419=SURFACE_SIDE_STYLE('',(#558));
#420=EDGE_LOOP('',(#559,#560,#561,#562));
#421=AXIS2_PLACEMENT_3D('',#563,#564,#565);
#422=DRAUGHTING_PRE_DEFINED_CURVE_FONT('continuous');
#423=COLOUR_RGB('',0.800000011920929,0.800000011920929,0.800000011920929);
#424=CARTESIAN_POINT('',(13.2990576677268,15.88,0.0));
#425=VECTOR('',#566,1.0);
#426=DRAUGHTING_PRE_DEFINED_CURVE_FONT('continuous');
#427=COLOUR_RGB('',0.800000011920929,0.800000011920929,0.800000011920929);
#428=CARTESIAN_POINT('',(2.58093717038857,15.88,0.0));
#429=VECTOR('',#567,1.0);
#430=DRAUGHTING_PRE_DEFINED_CURVE_FONT('continuous');
#431=COLOUR_RGB('',0.800000011920929,0.800000011920929,0.800000011920929);
#432=CARTESIAN_POINT('',(2.58093717038857,15.88,-7.18));
#433=VECTOR('',#568,1.0);
#434=DRAUGHTING_PRE_DEFINED_CURVE_FONT('continuous');
#435=COLOUR_RGB('',0.800000011920929,0.800000011920929,0.800000011920929);
#436=CARTESIAN_POINT('',(2.58093717038857,15.88,0.0));
#437=VECTOR('',#569,1.0);
#438=DRAUGHTING_PRE_DEFINED_CURVE_FONT('continuous');
#439=COLOUR_RGB('',0.800000011920929,0.800000011920929,0.800000011920929);
#440=CARTESIAN_POINT('',(13.2990628296114,0.0,0.0));
#441=VECTOR('',#570,1.0);
#442=PRE_DEFINED_MARKER('');
#443=COLOUR_RGB('',0.800000011920929,0.800000011920929,0.800000011920929);
#444=PRE_DEFINED_MARKER('');
#445=COLOUR_RGB('',0.800000011920929,0.800000011920929,0.800000011920929);
#446=DRAUGHTING_PRE_DEFINED_CURVE_FONT('continuous');
#447=COLOUR_RGB('',0.800000011920929,0.800000011920929,0.800000011920929);
#448=CARTESIAN_POINT('',(15.8799974190577,13.2990602486691,0.0));
#449=VECTOR('',#571,1.0);
#450=DRAUGHTING_PRE_DEFINED_CURVE_FONT('continuous');
#451=COLOUR_RGB('',0.800000011920929,0.800000011920929,0.800000011920929);
#452=CARTESIAN_POINT('',(15.8800025809423,2.5809397513309,0.0));
#453=VECTOR('',#572,1.0);
#454=PRE_DEFINED_MARKER('');
#455=COLOUR_RGB('',0.800000011920929,0.800000011920929,0.800000011920929);
#456=DRAUGHTING_PRE_DEFINED_CURVE_FONT('continuous');
#457=COLOUR_RGB('',0.800000011920929,0.800000011920929,0.800000011920929);
#458=CARTESIAN_POINT('',(15.8799974190577,13.2990602486691,0.0));
#459=VECTOR('',#573,1.0);
#460=PRE_DEFINED_MARKER('');
#461=COLOUR_RGB('',0.800000011920929,0.800000011920929,0.800000011920929);
#462=DRAUGHTING_PRE_DEFINED_CURVE_FONT('continuous');
#463=COLOUR_RGB('',0.800000011920929,0.800000011920929,0.800000011920929);
#464=CARTESIAN_POINT('',(2.5809423323E-006,2.5809397513309,-7.18));
#465=VECTOR('',#574,1.0);
#466=SURFACE_SIDE_STYLE('',(#575));
#467=EDGE_LOOP('',(#576,#577,#578,#579));
#468=AXIS2_PLACEMENT_3D('',#580,#581,#582);
#470=DIRECTION('',(4.8160352982422E-007,-0.999999999999884,0.0));
#471=DIRECTION('',(0.0,0.0,-1.0));
#472=SURFACE_STYLE_FILL_AREA(#583);
#473=ORIENTED_EDGE('',*,*,#99,.T.);
#474=ORIENTED_EDGE('',*,*,#157,.T.);
#475=ORIENTED_EDGE('',*,*,#127,.T.);
#476=ORIENTED_EDGE('',*,*,#169,.T.);
#477=ORIENTED_EDGE('',*,*,#103,.T.);
#478=ORIENTED_EDGE('',*,*,#155,.T.);
#479=ORIENTED_EDGE('',*,*,#145,.T.);
#480=ORIENTED_EDGE('',*,*,#97,.T.);
#481=CARTESIAN_POINT('',(7.94,7.94,0.0));
#482=DIRECTION('',(0.0,0.0,1.0));
#483=DIRECTION('',(1.0,0.0,0.0));
#484=DIRECTION('',(-1.0,0.0,0.0));
#485=SURFACE_STYLE_FILL_AREA(#584);
#486=ORIENTED_EDGE('',*,*,#137,.F.);
#487=ORIENTED_EDGE('',*,*,#107,.F.);
#488=ORIENTED_EDGE('',*,*,#173,.F.);
#489=ORIENTED_EDGE('',*,*,#75,.F.);
#490=ORIENTED_EDGE('',*,*,#153,.F.);
#491=ORIENTED_EDGE('',*,*,#83,.F.);
#492=ORIENTED_EDGE('',*,*,#95,.F.);
#493=ORIENTED_EDGE('',*,*,#119,.F.);
#494=CARTESIAN_POINT('',(7.94,7.94,-7.18));
#495=DIRECTION('',(0.0,0.0,1.0));
#496=DIRECTION('',(1.0,0.0,0.0));
#497=DIRECTION('',(0.0,0.0,-1.0));
#498=DIRECTION('',(-0.707106781186548,0.707106781186548,0.0));
#499=DIRECTION('',(0.707106781186548,-0.707106781186547,0.0));
#500=DIRECTION('',(1.0,0.0,0.0));
#501=SURFACE_STYLE_FILL_AREA(#585);
#502=ORIENTED_EDGE('',*,*,#83,.T.);
#503=ORIENTED_EDGE('',*,*,#151,.F.);
#504=ORIENTED_EDGE('',*,*,#103,.F.);
#505=ORIENTED_EDGE('',*,*,#149,.T.);
#506=CARTESIAN_POINT('',(13.2990576677268,15.88,0.0));
#507=DIRECTION('',(0.0,1.0,0.0));
#508=DIRECTION('',(1.0,-0.0,-0.0));
#509=DIRECTION('',(-1.0,0.0,0.0));
#510=DIRECTION('',(1.0,0.0,0.0));
#511=SURFACE_STYLE_FILL_AREA(#586);
#512=ORIENTED_EDGE('',*,*,#75,.T.);
#513=ORIENTED_EDGE('',*,*,#133,.F.);
#514=ORIENTED_EDGE('',*,*,#145,.F.);
#515=ORIENTED_EDGE('',*,*,#77,.T.);
#516=CARTESIAN_POINT('',(-2.58094233229755E-006,13.2990602486691,0.0));
#517=DIRECTION('',(-0.999999999999884,-4.8160352982422E-007,-0.0));
#518=DIRECTION('',(-4.8160352982422E-007,0.999999999999884,0.0));
#519=SURFACE_STYLE_FILL_AREA(#587);
#520=ORIENTED_EDGE('',*,*,#119,.T.);
#521=ORIENTED_EDGE('',*,*,#163,.F.);
#522=ORIENTED_EDGE('',*,*,#127,.F.);
#523=ORIENTED_EDGE('',*,*,#165,.T.);
#524=CARTESIAN_POINT('',(15.8800025809423,2.5809397513309,0.0));
#525=DIRECTION('',(0.999999999999884,4.8160352990663E-007,0.0));
#526=DIRECTION('',(4.8160352990663E-007,-0.999999999999884,-0.0));
#527=SURFACE_STYLE_FILL_AREA(#588);
#528=ORIENTED_EDGE('',*,*,#107,.T.);
#529=ORIENTED_EDGE('',*,*,#91,.F.);
#530=ORIENTED_EDGE('',*,*,#99,.F.);
#531=ORIENTED_EDGE('',*,*,#139,.T.);
#532=CARTESIAN_POINT('',(2.58094233227323,0.0,0.0));
#533=DIRECTION('',(0.0,-1.0,-0.0));
#534=DIRECTION('',(-1.0,0.0,-0.0));
#535=DIRECTION('',(-4.8160352990663E-007,0.999999999999884,0.0));
#536=SURFACE_STYLE_FILL_AREA(#589);
#537=DIRECTION('',(-4.8160352990663E-007,0.999999999999884,0.0));
#538=DIRECTION('',(0.0,0.0,-1.0));
#539=SURFACE_STYLE_FILL_AREA(#590);
#540=ORIENTED_EDGE('',*,*,#137,.T.);
#541=ORIENTED_EDGE('',*,*,#165,.F.);
#542=ORIENTED_EDGE('',*,*,#157,.F.);
#543=ORIENTED_EDGE('',*,*,#91,.T.);
#544=CARTESIAN_POINT('',(13.2990628296114,0.0,0.0));
#545=DIRECTION('',(0.707106781186547,-0.707106781186548,0.0));
#546=DIRECTION('',(-0.707106781186548,-0.707106781186547,-0.0));
#547=DIRECTION('',(0.707106781186548,0.707106781186547,0.0));
#548=DIRECTION('',(0.0,0.0,-1.0));
#549=SURFACE_STYLE_FILL_AREA(#591);
#550=ORIENTED_EDGE('',*,*,#153,.T.);
#551=ORIENTED_EDGE('',*,*,#77,.F.);
#552=ORIENTED_EDGE('',*,*,#155,.F.);
#553=ORIENTED_EDGE('',*,*,#151,.T.);
#554=CARTESIAN_POINT('',(2.58093717038857,15.88,0.0));
#555=DIRECTION('',(-0.707106781186548,0.707106781186548,0.0));
#556=DIRECTION('',(0.707106781186548,0.707106781186548,-0.0));
#557=DIRECTION('',(4.8160352982422E-007,-0.999999999999884,0.0));
#558=SURFACE_STYLE_FILL_AREA(#592);
#559=ORIENTED_EDGE('',*,*,#173,.T.);
#560=ORIENTED_EDGE('',*,*,#139,.F.);
#561=ORIENTED_EDGE('',*,*,#97,.F.);
#562=ORIENTED_EDGE('',*,*,#133,.T.);
#563=CARTESIAN_POINT('',(2.5809423323E-006,2.5809397513309,0.0));
#564=DIRECTION('',(-0.707106781186547,-0.707106781186548,-0.0));
#565=DIRECTION('',(-0.707106781186548,0.707106781186547,0.0));
#566=DIRECTION('',(0.0,0.0,-1.0));
#567=DIRECTION('',(0.0,0.0,-1.0));
#568=DIRECTION('',(-0.707106781186548,-0.707106781186548,0.0));
#569=DIRECTION('',(-0.707106781186548,-0.707106781186548,0.0));
#570=DIRECTION('',(0.707106781186548,0.707106781186547,0.0));
#571=DIRECTION('',(0.0,0.0,-1.0));
#572=DIRECTION('',(0.0,0.0,-1.0));
#573=DIRECTION('',(-0.707106781186548,0.707106781186548,0.0));
#574=DIRECTION('',(0.707106781186548,-0.707106781186547,0.0));
#575=SURFACE_STYLE_FILL_AREA(#593);
#576=ORIENTED_EDGE('',*,*,#95,.T.);
#577=ORIENTED_EDGE('',*,*,#149,.F.);
#578=ORIENTED_EDGE('',*,*,#169,.F.);
#579=ORIENTED_EDGE('',*,*,#163,.T.);
#580=CARTESIAN_POINT('',(15.8799974190577,13.2990602486691,0.0));
#581=DIRECTION('',(0.707106781186548,0.707106781186548,0.0));
#582=DIRECTION('',(0.707106781186548,-0.707106781186548,-0.0));
#583=FILL_AREA_STYLE('',(#594));
#584=FILL_AREA_STYLE('',(#595));
#585=FILL_AREA_STYLE('',(#596));
#586=FILL_AREA_STYLE('',(#597));
#587=FILL_AREA_STYLE('',(#598));
#588=FILL_AREA_STYLE('',(#599));
#589=FILL_AREA_STYLE('',(#600));
#590=FILL_AREA_STYLE('',(#601));
#591=FILL_AREA_STYLE('',(#602));
#592=FILL_AREA_STYLE('',(#603));
#593=FILL_AREA_STYLE('',(#604));
#594=FILL_AREA_STYLE_COLOUR('',#605);
#595=FILL_AREA_STYLE_COLOUR('',#606);
#596=FILL_AREA_STYLE_COLOUR('',#607);
#597=FILL_AREA_STYLE_COLOUR('',#608);
#598=FILL_AREA_STYLE_COLOUR('',#609);
#599=FILL_AREA_STYLE_COLOUR('',#610);
#600=FILL_AREA_STYLE_COLOUR('',#611);
#601=FILL_AREA_STYLE_COLOUR('',#612);
#602=FILL_AREA_STYLE_COLOUR('',#613);
#603=FILL_AREA_STYLE_COLOUR('',#614);
#604=FILL_AREA_STYLE_COLOUR('',#615);
#605=COLOUR_RGB('',0.800000011920929,0.800000011920929,0.800000011920929);
#606=COLOUR_RGB('',0.800000011920929,0.800000011920929,0.800000011920929);
#607=COLOUR_RGB('',0.800000011920929,0.800000011920929,0.800000011920929);
#608=COLOUR_RGB('',0.800000011920929,0.800000011920929,0.800000011920929);
#609=COLOUR_RGB('',0.800000011920929,0.800000011920929,0.800000011920929);
#610=COLOUR_RGB('',0.800000011920929,0.800000011920929,0.800000011920929);
#611=COLOUR_RGB('',0.800000011920929,0.800000011920929,0.800000011920929);
#612=COLOUR_RGB('',0.800000011920929,0.800000011920929,0.800000011920929);
#613=COLOUR_RGB('',0.800000011920929,0.800000011920929,0.800000011920929);
#614=COLOUR_RGB('',0.800000011920929,0.800000011920929,0.800000011920929);
#615=COLOUR_RGB('',0.800000011920929,0.800000011920929,0.800000011920929);
#616=AXIS2_PLACEMENT_3D('PCS',#617,#618,#619);
#617=CARTESIAN_POINT('',(0.0,0.0,0.0));
#618=DIRECTION('',(0.0,0.0,1.0));
#619=DIRECTION('',(1.0,0.0,0.0));
#620=AXIS2_PLACEMENT_3D('MCS',#621,#622,#623);
#621=CARTESIAN_POINT('',(7.94,7.94,0.0));
#622=DIRECTION('',(0.0,0.0,1.0));
#623=DIRECTION('',(1.0,0.0,0.0));
#624=CONSTRUCTIVE_GEOMETRY_REPRESENTATION_RELATIONSHIP('coordinate systems',$,#65,#625);
#625=CONSTRUCTIVE_GEOMETRY_REPRESENTATION('coordinate systems',(#616,#620),#6);
ENDSEC;
END-ISO-10303-21;
