ISO-10303-21;
HEADER;
FILE_DESCRIPTION(('no description'),'unknown implementation level');
FILE_NAME('solidkhCeWSaWIYjeNyAUxYt_P9uoamQ_1.STP','  ',('CIMSOURCE GmbH'),('CADClick - KiM GmbH - www.kimweb.de'),'unknown preprocess','ACIS','unknown authorization');
FILE_SCHEMA(('automotive_design'));
ENDSEC;
DATA;
#1=MECHANICAL_DESIGN_GEOMETRIC_PRESENTATION_REPRESENTATION(' ',(#10,#11,#12,#13,#14,#15,#16,#17,#18,#19,#20,#21,#22,#23,#24,#25,#26,#27,#28,#29,#30,#31,#32,#33,#34,#35,#36,#37,#38,#39,#40,#41,#42,#43,#44,#45,#46,#47,#48,#49,#50,#51,#52,#53,#54,#55,#56,#57,#58,#59,#60),#6);
#2=PRODUCT_DEFINITION_CONTEXT('',#61,'design');
#3=APPLICATION_PROTOCOL_DEFINITION('INTERNATIONAL STANDARD','automotive_design',1994,#61);
#4=PRODUCT_CATEGORY_RELATIONSHIP('NONE','NONE',#62,#63);
#5=SHAPE_DEFINITION_REPRESENTATION(#64,#65);
#6= (GEOMETRIC_REPRESENTATION_CONTEXT(3)GLOBAL_UNCERTAINTY_ASSIGNED_CONTEXT((#68))GLOBAL_UNIT_ASSIGNED_CONTEXT((#70,#71,#72))REPRESENTATION_CONTEXT('NONE','WORKSPACE'));
#10=STYLED_ITEM('',(#74),#75);
#11=STYLED_ITEM('',(#76),#77);
#12=STYLED_ITEM('',(#78),#79);
#13=STYLED_ITEM('',(#80),#81);
#14=STYLED_ITEM('',(#82),#83);
#15=STYLED_ITEM('',(#84),#85);
#16=STYLED_ITEM('',(#86),#87);
#17=STYLED_ITEM('',(#88),#89);
#18=STYLED_ITEM('',(#90),#91);
#19=STYLED_ITEM('',(#92),#93);
#20=STYLED_ITEM('',(#94),#95);
#21=STYLED_ITEM('',(#96),#97);
#22=STYLED_ITEM('',(#98),#99);
#23=STYLED_ITEM('',(#100),#101);
#24=STYLED_ITEM('',(#102),#103);
#25=STYLED_ITEM('',(#104),#105);
#26=STYLED_ITEM('',(#106),#107);
#27=STYLED_ITEM('',(#108),#109);
#28=STYLED_ITEM('',(#110),#111);
#29=STYLED_ITEM('',(#112),#113);
#30=STYLED_ITEM('',(#114),#115);
#31=STYLED_ITEM('',(#116),#117);
#32=STYLED_ITEM('',(#118),#119);
#33=STYLED_ITEM('',(#120),#121);
#34=STYLED_ITEM('',(#122),#123);
#35=STYLED_ITEM('',(#124),#125);
#36=STYLED_ITEM('',(#126),#127);
#37=STYLED_ITEM('',(#128),#129);
#38=STYLED_ITEM('',(#130),#131);
#39=STYLED_ITEM('',(#132),#133);
#40=STYLED_ITEM('',(#134),#135);
#41=STYLED_ITEM('',(#136),#137);
#42=STYLED_ITEM('',(#138),#139);
#43=STYLED_ITEM('',(#140),#141);
#44=STYLED_ITEM('',(#142),#143);
#45=STYLED_ITEM('',(#144),#145);
#46=STYLED_ITEM('',(#146),#147);
#47=STYLED_ITEM('',(#148),#149);
#48=STYLED_ITEM('',(#150),#151);
#49=STYLED_ITEM('',(#152),#153);
#50=STYLED_ITEM('',(#154),#155);
#51=STYLED_ITEM('',(#156),#157);
#52=STYLED_ITEM('',(#158),#159);
#53=STYLED_ITEM('',(#160),#161);
#54=STYLED_ITEM('',(#162),#163);
#55=STYLED_ITEM('',(#164),#165);
#56=STYLED_ITEM('',(#166),#167);
#57=STYLED_ITEM('',(#168),#169);
#58=STYLED_ITEM('',(#170),#171);
#59=STYLED_ITEM('',(#172),#173);
#60=STYLED_ITEM('',(#174),#175);
#61=APPLICATION_CONTEXT(' ');
#62=PRODUCT_CATEGORY('part','NONE');
#63=PRODUCT_RELATED_PRODUCT_CATEGORY('detail',' ',(#176));
#64=PRODUCT_DEFINITION_SHAPE('NONE','NONE',#177);
#65=ADVANCED_BREP_SHAPE_REPRESENTATION('1',(#97,#178),#6);
#68=UNCERTAINTY_MEASURE_WITH_UNIT(LENGTH_MEASURE(1.0E-006),#70,'','');
#70= (CONVERSION_BASED_UNIT('MILLIMETRE',#181)LENGTH_UNIT()NAMED_UNIT(#184));
#71= (NAMED_UNIT(#186)PLANE_ANGLE_UNIT()SI_UNIT($,.RADIAN.));
#72= (NAMED_UNIT(#186)SOLID_ANGLE_UNIT()SI_UNIT($,.STERADIAN.));
#74=PRESENTATION_STYLE_ASSIGNMENT((#192));
#75=EDGE_CURVE('',#147,#125,#193,.T.);
#76=PRESENTATION_STYLE_ASSIGNMENT((#194));
#77=VERTEX_POINT('',#195);
#78=PRESENTATION_STYLE_ASSIGNMENT((#196));
#79=EDGE_CURVE('',#127,#103,#197,.T.);
#80=PRESENTATION_STYLE_ASSIGNMENT((#198));
#81=ADVANCED_FACE('',(#199),#200,.T.);
#82=PRESENTATION_STYLE_ASSIGNMENT((#201));
#83=ADVANCED_FACE('',(#202),#203,.T.);
#84=PRESENTATION_STYLE_ASSIGNMENT((#204));
#85=VERTEX_POINT('',#205);
#86=PRESENTATION_STYLE_ASSIGNMENT((#206));
#87=EDGE_CURVE('',#85,#77,#207,.T.);
#88=PRESENTATION_STYLE_ASSIGNMENT((#208));
#89=EDGE_CURVE('',#147,#135,#209,.T.);
#90=PRESENTATION_STYLE_ASSIGNMENT((#210));
#91=ADVANCED_FACE('',(#211),#212,.T.);
#92=PRESENTATION_STYLE_ASSIGNMENT((#213));
#93=VERTEX_POINT('',#214);
#94=PRESENTATION_STYLE_ASSIGNMENT((#215));
#95=EDGE_CURVE('',#135,#85,#216,.T.);
#96=PRESENTATION_STYLE_ASSIGNMENT((#217));
#97=MANIFOLD_SOLID_BREP('1',#218);
#98=PRESENTATION_STYLE_ASSIGNMENT((#219));
#99=EDGE_CURVE('',#113,#137,#220,.T.);
#100=PRESENTATION_STYLE_ASSIGNMENT((#221));
#101=EDGE_CURVE('',#103,#143,#222,.T.);
#102=PRESENTATION_STYLE_ASSIGNMENT((#223));
#103=VERTEX_POINT('',#224);
#104=PRESENTATION_STYLE_ASSIGNMENT((#225));
#105=EDGE_CURVE('',#143,#113,#226,.T.);
#106=PRESENTATION_STYLE_ASSIGNMENT((#227));
#107=EDGE_CURVE('',#93,#163,#228,.T.);
#108=PRESENTATION_STYLE_ASSIGNMENT((#229));
#109=VERTEX_POINT('',#230);
#110=PRESENTATION_STYLE_ASSIGNMENT((#231));
#111=ADVANCED_FACE('',(#232),#233,.T.);
#112=PRESENTATION_STYLE_ASSIGNMENT((#234));
#113=VERTEX_POINT('',#235);
#114=PRESENTATION_STYLE_ASSIGNMENT((#236));
#115=EDGE_CURVE('',#85,#127,#237,.T.);
#116=PRESENTATION_STYLE_ASSIGNMENT((#238));
#117=EDGE_CURVE('',#127,#109,#239,.T.);
#118=PRESENTATION_STYLE_ASSIGNMENT((#240));
#119=EDGE_CURVE('',#109,#143,#241,.T.);
#120=PRESENTATION_STYLE_ASSIGNMENT((#242));
#121=EDGE_CURVE('',#103,#149,#243,.T.);
#122=PRESENTATION_STYLE_ASSIGNMENT((#244));
#123=EDGE_CURVE('',#175,#137,#245,.T.);
#124=PRESENTATION_STYLE_ASSIGNMENT((#246));
#125=VERTEX_POINT('',#247);
#126=PRESENTATION_STYLE_ASSIGNMENT((#248));
#127=VERTEX_POINT('',#249);
#128=PRESENTATION_STYLE_ASSIGNMENT((#250));
#129=EDGE_CURVE('',#149,#113,#251,.T.);
#130=PRESENTATION_STYLE_ASSIGNMENT((#252));
#131=EDGE_CURVE('',#137,#163,#253,.T.);
#132=PRESENTATION_STYLE_ASSIGNMENT((#254));
#133=EDGE_CURVE('',#163,#125,#255,.T.);
#134=PRESENTATION_STYLE_ASSIGNMENT((#256));
#135=VERTEX_POINT('',#257);
#136=PRESENTATION_STYLE_ASSIGNMENT((#258));
#137=VERTEX_POINT('',#259);
#138=PRESENTATION_STYLE_ASSIGNMENT((#260));
#139=ADVANCED_FACE('',(#261),#262,.F.);
#140=PRESENTATION_STYLE_ASSIGNMENT((#263));
#141=EDGE_CURVE('',#93,#147,#264,.T.);
#142=PRESENTATION_STYLE_ASSIGNMENT((#265));
#143=VERTEX_POINT('',#266);
#144=PRESENTATION_STYLE_ASSIGNMENT((#267));
#145=EDGE_CURVE('',#125,#151,#268,.T.);
#146=PRESENTATION_STYLE_ASSIGNMENT((#269));
#147=VERTEX_POINT('',#270);
#148=PRESENTATION_STYLE_ASSIGNMENT((#271));
#149=VERTEX_POINT('',#272);
#150=PRESENTATION_STYLE_ASSIGNMENT((#273));
#151=VERTEX_POINT('',#274);
#152=PRESENTATION_STYLE_ASSIGNMENT((#275));
#153=EDGE_CURVE('',#149,#175,#276,.T.);
#154=PRESENTATION_STYLE_ASSIGNMENT((#277));
#155=EDGE_CURVE('',#175,#93,#278,.T.);
#156=PRESENTATION_STYLE_ASSIGNMENT((#279));
#157=ADVANCED_FACE('',(#280),#281,.T.);
#158=PRESENTATION_STYLE_ASSIGNMENT((#282));
#159=EDGE_CURVE('',#151,#77,#283,.T.);
#160=PRESENTATION_STYLE_ASSIGNMENT((#284));
#161=ADVANCED_FACE('',(#285),#286,.T.);
#162=PRESENTATION_STYLE_ASSIGNMENT((#287));
#163=VERTEX_POINT('',#288);
#164=PRESENTATION_STYLE_ASSIGNMENT((#289));
#165=ADVANCED_FACE('',(#290),#291,.T.);
#166=PRESENTATION_STYLE_ASSIGNMENT((#292));
#167=EDGE_CURVE('',#77,#109,#293,.T.);
#168=PRESENTATION_STYLE_ASSIGNMENT((#294));
#169=ADVANCED_FACE('',(#295),#296,.T.);
#170=PRESENTATION_STYLE_ASSIGNMENT((#297));
#171=EDGE_CURVE('',#135,#151,#298,.T.);
#172=PRESENTATION_STYLE_ASSIGNMENT((#299));
#173=ADVANCED_FACE('',(#300),#301,.T.);
#174=PRESENTATION_STYLE_ASSIGNMENT((#302));
#175=VERTEX_POINT('',#303);
#176=PRODUCT('1','1','PART-1-DESC',(#304));
#177=PRODUCT_DEFINITION('NONE','NONE',#305,#2);
#178=AXIS2_PLACEMENT_3D('',#306,#307,#308);
#181=LENGTH_MEASURE_WITH_UNIT(LENGTH_MEASURE(1.0),#309);
#184=DIMENSIONAL_EXPONENTS(1.0,0.0,0.0,0.0,0.0,0.0,0.0);
#186=DIMENSIONAL_EXPONENTS(0.0,0.0,0.0,0.0,0.0,0.0,0.0);
#192=CURVE_STYLE('',#310,POSITIVE_LENGTH_MEASURE(1.0E-006),#311);
#193=LINE('',#312,#313);
#194=POINT_STYLE(' ',#314,POSITIVE_LENGTH_MEASURE(1.0E-006),#315);
#195=CARTESIAN_POINT('',(4.5999999999227,0.309189836445262,-2.2));
#196=CURVE_STYLE('',#316,POSITIVE_LENGTH_MEASURE(1.0E-006),#317);
#197=LINE('',#318,#319);
#198=SURFACE_STYLE_USAGE(.BOTH.,#320);
#199=FACE_OUTER_BOUND('',#321,.T.);
#200=PLANE('',#322);
#201=SURFACE_STYLE_USAGE(.BOTH.,#323);
#202=FACE_OUTER_BOUND('',#324,.T.);
#203=CONICAL_SURFACE('',#325,0.400000000000001,0.139626340159547);
#204=POINT_STYLE(' ',#326,POSITIVE_LENGTH_MEASURE(1.0E-006),#327);
#205=CARTESIAN_POINT('',(4.6,0.0,0.0));
#206=CURVE_STYLE('',#328,POSITIVE_LENGTH_MEASURE(1.0E-006),#329);
#207=LINE('',#330,#331);
#208=CURVE_STYLE('',#332,POSITIVE_LENGTH_MEASURE(1.0E-006),#333);
#209=CIRCLE('',#334,0.4);
#210=SURFACE_STYLE_USAGE(.BOTH.,#335);
#211=FACE_OUTER_BOUND('',#336,.T.);
#212=CONICAL_SURFACE('',#337,0.4,0.139626340159547);
#213=POINT_STYLE(' ',#338,POSITIVE_LENGTH_MEASURE(1.0E-006),#339);
#214=CARTESIAN_POINT('',(9.99991200956174E-011,4.6,0.0));
#215=CURVE_STYLE('',#340,POSITIVE_LENGTH_MEASURE(1.0E-006),#341);
#216=LINE('',#342,#343);
#217=SURFACE_STYLE_USAGE(.BOTH.,#344);
#218=CLOSED_SHELL('',(#161,#111,#157,#165,#83,#81,#91,#173,#139,#169));
#219=CURVE_STYLE('',#345,POSITIVE_LENGTH_MEASURE(1.0E-006),#346);
#220=LINE('',#347,#348);
#221=CURVE_STYLE('',#349,POSITIVE_LENGTH_MEASURE(1.0E-006),#350);
#222=LINE('',#351,#352);
#223=POINT_STYLE(' ',#353,POSITIVE_LENGTH_MEASURE(1.0E-006),#354);
#224=CARTESIAN_POINT('',(5.0,4.6,0.0));
#225=CURVE_STYLE('',#355,POSITIVE_LENGTH_MEASURE(1.0E-006),#356);
#226=CIRCLE('',#357,0.0908101636547391);
#227=CURVE_STYLE('',#358,POSITIVE_LENGTH_MEASURE(1.0E-006),#359);
#228=LINE('',#360,#361);
#229=POINT_STYLE(' ',#362,POSITIVE_LENGTH_MEASURE(1.0E-006),#363);
#230=CARTESIAN_POINT('',(4.69081016365474,0.4,-2.2));
#231=SURFACE_STYLE_USAGE(.BOTH.,#364);
#232=FACE_OUTER_BOUND('',#365,.T.);
#233=PLANE('',#366);
#234=POINT_STYLE(' ',#367,POSITIVE_LENGTH_MEASURE(1.0E-006),#368);
#235=CARTESIAN_POINT('',(4.6,4.69081016365474,-2.2));
#236=CURVE_STYLE('',#369,POSITIVE_LENGTH_MEASURE(1.0E-006),#370);
#237=CIRCLE('',#371,0.4);
#238=CURVE_STYLE('',#372,POSITIVE_LENGTH_MEASURE(1.0E-006),#373);
#239=LINE('',#374,#375);
#240=CURVE_STYLE('',#376,POSITIVE_LENGTH_MEASURE(1.0E-006),#377);
#241=LINE('',#378,#379);
#242=CURVE_STYLE('',#380,POSITIVE_LENGTH_MEASURE(1.0E-006),#381);
#243=CIRCLE('',#382,0.400000000000001);
#244=CURVE_STYLE('',#383,POSITIVE_LENGTH_MEASURE(1.0E-006),#384);
#245=LINE('',#385,#386);
#246=POINT_STYLE(' ',#387,POSITIVE_LENGTH_MEASURE(1.0E-006),#388);
#247=CARTESIAN_POINT('',(0.309189836445262,0.400000000077297,-2.2));
#248=POINT_STYLE(' ',#389,POSITIVE_LENGTH_MEASURE(1.0E-006),#390);
#249=CARTESIAN_POINT('',(4.9999999999,0.4,0.0));
#250=CURVE_STYLE('',#391,POSITIVE_LENGTH_MEASURE(1.0E-006),#392);
#251=LINE('',#393,#394);
#252=CURVE_STYLE('',#395,POSITIVE_LENGTH_MEASURE(1.0E-006),#396);
#253=CIRCLE('',#397,0.0908101636547391);
#254=CURVE_STYLE('',#398,POSITIVE_LENGTH_MEASURE(1.0E-006),#399);
#255=LINE('',#400,#401);
#256=POINT_STYLE(' ',#402,POSITIVE_LENGTH_MEASURE(1.0E-006),#403);
#257=CARTESIAN_POINT('',(0.4,0.0,0.0));
#258=POINT_STYLE(' ',#404,POSITIVE_LENGTH_MEASURE(1.0E-006),#405);
#259=CARTESIAN_POINT('',(0.400000000077298,4.69081016355474,-2.2));
#260=SURFACE_STYLE_USAGE(.BOTH.,#406);
#261=FACE_OUTER_BOUND('',#407,.T.);
#262=PLANE('',#408);
#263=CURVE_STYLE('',#409,POSITIVE_LENGTH_MEASURE(1.0E-006),#410);
#264=LINE('',#411,#412);
#265=POINT_STYLE(' ',#413,POSITIVE_LENGTH_MEASURE(1.0E-006),#414);
#266=CARTESIAN_POINT('',(4.69081016355474,4.5999999999227,-2.2));
#267=CURVE_STYLE('',#415,POSITIVE_LENGTH_MEASURE(1.0E-006),#416);
#268=CIRCLE('',#417,0.0908101636547381);
#269=POINT_STYLE(' ',#418,POSITIVE_LENGTH_MEASURE(1.0E-006),#419);
#270=CARTESIAN_POINT('',(0.0,0.4,0.0));
#271=POINT_STYLE(' ',#420,POSITIVE_LENGTH_MEASURE(1.0E-006),#421);
#272=CARTESIAN_POINT('',(4.6,4.9999999999,0.0));
#273=POINT_STYLE(' ',#422,POSITIVE_LENGTH_MEASURE(1.0E-006),#423);
#274=CARTESIAN_POINT('',(0.4,0.309189836345262,-2.2));
#275=CURVE_STYLE('',#424,POSITIVE_LENGTH_MEASURE(1.0E-006),#425);
#276=LINE('',#426,#427);
#277=CURVE_STYLE('',#428,POSITIVE_LENGTH_MEASURE(1.0E-006),#429);
#278=CIRCLE('',#430,0.400000000000001);
#279=SURFACE_STYLE_USAGE(.BOTH.,#431);
#280=FACE_OUTER_BOUND('',#432,.T.);
#281=CONICAL_SURFACE('',#433,0.400000000000001,0.139626340159547);
#282=CURVE_STYLE('',#434,POSITIVE_LENGTH_MEASURE(1.0E-006),#435);
#283=LINE('',#436,#437);
#284=SURFACE_STYLE_USAGE(.BOTH.,#438);
#285=FACE_OUTER_BOUND('',#439,.T.);
#286=CONICAL_SURFACE('',#440,0.4,0.139626340159547);
#287=POINT_STYLE(' ',#441,POSITIVE_LENGTH_MEASURE(1.0E-006),#442);
#288=CARTESIAN_POINT('',(0.309189836345262,4.6,-2.2));
#289=SURFACE_STYLE_USAGE(.BOTH.,#443);
#290=FACE_OUTER_BOUND('',#444,.T.);
#291=PLANE('',#445);
#292=CURVE_STYLE('',#446,POSITIVE_LENGTH_MEASURE(1.0E-006),#447);
#293=CIRCLE('',#448,0.0908101636547378);
#294=SURFACE_STYLE_USAGE(.BOTH.,#449);
#295=FACE_OUTER_BOUND('',#450,.T.);
#296=PLANE('',#451);
#297=CURVE_STYLE('',#452,POSITIVE_LENGTH_MEASURE(1.0E-006),#453);
#298=LINE('',#454,#455);
#299=SURFACE_STYLE_USAGE(.BOTH.,#456);
#300=FACE_OUTER_BOUND('',#457,.T.);
#301=PLANE('',#458);
#302=POINT_STYLE(' ',#459,POSITIVE_LENGTH_MEASURE(1.0E-006),#460);
#303=CARTESIAN_POINT('',(0.4,5.0,0.0));
#304=PRODUCT_CONTEXT('',#61,'mechanical');
#305=PRODUCT_DEFINITION_FORMATION_WITH_SPECIFIED_SOURCE(' ','NONE',#176,.NOT_KNOWN.);
#306=CARTESIAN_POINT('',(0.0,0.0,0.0));
#307=DIRECTION('',(0.0,0.0,1.0));
#308=DIRECTION('',(1.0,0.0,0.0));
#309= (NAMED_UNIT(#184)LENGTH_UNIT()SI_UNIT(.MILLI.,.METRE.));
#310=DRAUGHTING_PRE_DEFINED_CURVE_FONT('continuous');
#311=COLOUR_RGB('',0.800000011920929,0.800000011920929,0.800000011920929);
#312=CARTESIAN_POINT('',(0.0,0.4,0.0));
#313=VECTOR('',#462,1.0);
#314=PRE_DEFINED_MARKER('');
#315=COLOUR_RGB('',0.800000011920929,0.800000011920929,0.800000011920929);
#316=DRAUGHTING_PRE_DEFINED_CURVE_FONT('continuous');
#317=COLOUR_RGB('',0.800000011920929,0.800000011920929,0.800000011920929);
#318=CARTESIAN_POINT('',(5.0,0.4,0.0));
#319=VECTOR('',#463,1.0);
#320=SURFACE_SIDE_STYLE('',(#464));
#321=EDGE_LOOP('',(#465,#466,#467,#468));
#322=AXIS2_PLACEMENT_3D('',#469,#470,#471);
#323=SURFACE_SIDE_STYLE('',(#472));
#324=EDGE_LOOP('',(#473,#474,#475,#476));
#325=AXIS2_PLACEMENT_3D('',#477,#478,#479);
#326=PRE_DEFINED_MARKER('');
#327=COLOUR_RGB('',0.800000011920929,0.800000011920929,0.800000011920929);
#328=DRAUGHTING_PRE_DEFINED_CURVE_FONT('continuous');
#329=COLOUR_RGB('',0.800000011920929,0.800000011920929,0.800000011920929);
#330=CARTESIAN_POINT('',(4.6,0.0,0.0));
#331=VECTOR('',#480,1.0);
#332=DRAUGHTING_PRE_DEFINED_CURVE_FONT('continuous');
#333=COLOUR_RGB('',0.800000011920929,0.800000011920929,0.800000011920929);
#334=AXIS2_PLACEMENT_3D('',#481,#482,#483);
#335=SURFACE_SIDE_STYLE('',(#484));
#336=EDGE_LOOP('',(#485,#486,#487,#488));
#337=AXIS2_PLACEMENT_3D('',#489,#490,#491);
#338=PRE_DEFINED_MARKER('');
#339=COLOUR_RGB('',0.800000011920929,0.800000011920929,0.800000011920929);
#340=DRAUGHTING_PRE_DEFINED_CURVE_FONT('continuous');
#341=COLOUR_RGB('',0.800000011920929,0.800000011920929,0.800000011920929);
#342=CARTESIAN_POINT('',(0.4,0.0,0.0));
#343=VECTOR('',#492,1.0);
#344=SURFACE_SIDE_STYLE('',(#493));
#345=DRAUGHTING_PRE_DEFINED_CURVE_FONT('continuous');
#346=COLOUR_RGB('',0.800000011920929,0.800000011920929,0.800000011920929);
#347=CARTESIAN_POINT('',(4.6,4.69081016365474,-2.2));
#348=VECTOR('',#494,1.0);
#349=DRAUGHTING_PRE_DEFINED_CURVE_FONT('continuous');
#350=COLOUR_RGB('',0.800000011920929,0.800000011920929,0.800000011920929);
#351=CARTESIAN_POINT('',(5.0,4.6,0.0));
#352=VECTOR('',#495,1.0);
#353=PRE_DEFINED_MARKER('');
#354=COLOUR_RGB('',0.800000011920929,0.800000011920929,0.800000011920929);
#355=DRAUGHTING_PRE_DEFINED_CURVE_FONT('continuous');
#356=COLOUR_RGB('',0.800000011920929,0.800000011920929,0.800000011920929);
#357=AXIS2_PLACEMENT_3D('',#496,#497,#498);
#358=DRAUGHTING_PRE_DEFINED_CURVE_FONT('continuous');
#359=COLOUR_RGB('',0.800000011920929,0.800000011920929,0.800000011920929);
#360=CARTESIAN_POINT('',(9.99991200956174E-011,4.6,0.0));
#361=VECTOR('',#499,1.0);
#362=PRE_DEFINED_MARKER('');
#363=COLOUR_RGB('',0.800000011920929,0.800000011920929,0.800000011920929);
#364=SURFACE_SIDE_STYLE('',(#500));
#365=EDGE_LOOP('',(#501,#502,#503,#504));
#366=AXIS2_PLACEMENT_3D('',#505,#506,#507);
#367=PRE_DEFINED_MARKER('');
#368=COLOUR_RGB('',0.800000011920929,0.800000011920929,0.800000011920929);
#369=DRAUGHTING_PRE_DEFINED_CURVE_FONT('continuous');
#370=COLOUR_RGB('',0.800000011920929,0.800000011920929,0.800000011920929);
#371=AXIS2_PLACEMENT_3D('',#508,#509,#510);
#372=DRAUGHTING_PRE_DEFINED_CURVE_FONT('continuous');
#373=COLOUR_RGB('',0.800000011920929,0.800000011920929,0.800000011920929);
#374=CARTESIAN_POINT('',(4.9999999999,0.4,0.0));
#375=VECTOR('',#511,1.0);
#376=DRAUGHTING_PRE_DEFINED_CURVE_FONT('continuous');
#377=COLOUR_RGB('',0.800000011920929,0.800000011920929,0.800000011920929);
#378=CARTESIAN_POINT('',(4.69081016365474,0.4,-2.2));
#379=VECTOR('',#512,1.0);
#380=DRAUGHTING_PRE_DEFINED_CURVE_FONT('continuous');
#381=COLOUR_RGB('',0.800000011920929,0.800000011920929,0.800000011920929);
#382=AXIS2_PLACEMENT_3D('',#513,#514,#515);
#383=DRAUGHTING_PRE_DEFINED_CURVE_FONT('continuous');
#384=COLOUR_RGB('',0.800000011920929,0.800000011920929,0.800000011920929);
#385=CARTESIAN_POINT('',(0.4,5.0,0.0));
#386=VECTOR('',#516,1.0);
#387=PRE_DEFINED_MARKER('');
#388=COLOUR_RGB('',0.800000011920929,0.800000011920929,0.800000011920929);
#389=PRE_DEFINED_MARKER('');
#390=COLOUR_RGB('',0.800000011920929,0.800000011920929,0.800000011920929);
#391=DRAUGHTING_PRE_DEFINED_CURVE_FONT('continuous');
#392=COLOUR_RGB('',0.800000011920929,0.800000011920929,0.800000011920929);
#393=CARTESIAN_POINT('',(4.6,4.9999999999,0.0));
#394=VECTOR('',#517,1.0);
#395=DRAUGHTING_PRE_DEFINED_CURVE_FONT('continuous');
#396=COLOUR_RGB('',0.800000011920929,0.800000011920929,0.800000011920929);
#397=AXIS2_PLACEMENT_3D('',#518,#519,#520);
#398=DRAUGHTING_PRE_DEFINED_CURVE_FONT('continuous');
#399=COLOUR_RGB('',0.800000011920929,0.800000011920929,0.800000011920929);
#400=CARTESIAN_POINT('',(0.309189836345262,4.6,-2.2));
#401=VECTOR('',#521,1.0);
#402=PRE_DEFINED_MARKER('');
#403=COLOUR_RGB('',0.800000011920929,0.800000011920929,0.800000011920929);
#404=PRE_DEFINED_MARKER('');
#405=COLOUR_RGB('',0.800000011920929,0.800000011920929,0.800000011920929);
#406=SURFACE_SIDE_STYLE('',(#522));
#407=EDGE_LOOP('',(#523,#524,#525,#526,#527,#528,#529,#530));
#408=AXIS2_PLACEMENT_3D('',#531,#532,#533);
#409=DRAUGHTING_PRE_DEFINED_CURVE_FONT('continuous');
#410=COLOUR_RGB('',0.800000011920929,0.800000011920929,0.800000011920929);
#411=CARTESIAN_POINT('',(0.0,4.6,0.0));
#412=VECTOR('',#534,1.0);
#413=PRE_DEFINED_MARKER('');
#414=COLOUR_RGB('',0.800000011920929,0.800000011920929,0.800000011920929);
#415=DRAUGHTING_PRE_DEFINED_CURVE_FONT('continuous');
#416=COLOUR_RGB('',0.800000011920929,0.800000011920929,0.800000011920929);
#417=AXIS2_PLACEMENT_3D('',#535,#536,#537);
#418=PRE_DEFINED_MARKER('');
#419=COLOUR_RGB('',0.800000011920929,0.800000011920929,0.800000011920929);
#420=PRE_DEFINED_MARKER('');
#421=COLOUR_RGB('',0.800000011920929,0.800000011920929,0.800000011920929);
#422=PRE_DEFINED_MARKER('');
#423=COLOUR_RGB('',0.800000011920929,0.800000011920929,0.800000011920929);
#424=DRAUGHTING_PRE_DEFINED_CURVE_FONT('continuous');
#425=COLOUR_RGB('',0.800000011920929,0.800000011920929,0.800000011920929);
#426=CARTESIAN_POINT('',(4.6,5.0,0.0));
#427=VECTOR('',#538,1.0);
#428=DRAUGHTING_PRE_DEFINED_CURVE_FONT('continuous');
#429=COLOUR_RGB('',0.800000011920929,0.800000011920929,0.800000011920929);
#430=AXIS2_PLACEMENT_3D('',#539,#540,#541);
#431=SURFACE_SIDE_STYLE('',(#542));
#432=EDGE_LOOP('',(#543,#544,#545,#546));
#433=AXIS2_PLACEMENT_3D('',#547,#548,#549);
#434=DRAUGHTING_PRE_DEFINED_CURVE_FONT('continuous');
#435=COLOUR_RGB('',0.800000011920929,0.800000011920929,0.800000011920929);
#436=CARTESIAN_POINT('',(0.4,0.309189836345262,-2.2));
#437=VECTOR('',#550,1.0);
#438=SURFACE_SIDE_STYLE('',(#551));
#439=EDGE_LOOP('',(#552,#553,#554,#555));
#440=AXIS2_PLACEMENT_3D('',#556,#557,#558);
#441=PRE_DEFINED_MARKER('');
#442=COLOUR_RGB('',0.800000011920929,0.800000011920929,0.800000011920929);
#443=SURFACE_SIDE_STYLE('',(#559));
#444=EDGE_LOOP('',(#560,#561,#562,#563));
#445=AXIS2_PLACEMENT_3D('',#564,#565,#566);
#446=DRAUGHTING_PRE_DEFINED_CURVE_FONT('continuous');
#447=COLOUR_RGB('',0.800000011920929,0.800000011920929,0.800000011920929);
#448=AXIS2_PLACEMENT_3D('',#567,#568,#569);
#449=SURFACE_SIDE_STYLE('',(#570));
#450=EDGE_LOOP('',(#571,#572,#573,#574,#575,#576,#577,#578));
#451=AXIS2_PLACEMENT_3D('',#579,#580,#581);
#452=DRAUGHTING_PRE_DEFINED_CURVE_FONT('continuous');
#453=COLOUR_RGB('',0.800000011920929,0.800000011920929,0.800000011920929);
#454=CARTESIAN_POINT('',(0.4,0.0,0.0));
#455=VECTOR('',#582,1.0);
#456=SURFACE_SIDE_STYLE('',(#583));
#457=EDGE_LOOP('',(#584,#585,#586,#587));
#458=AXIS2_PLACEMENT_3D('',#588,#589,#590);
#459=PRE_DEFINED_MARKER('');
#460=COLOUR_RGB('',0.800000011920929,0.800000011920929,0.800000011920929);
#462=DIRECTION('',(0.139173101004206,3.47931195283878E-011,-0.990268068735367));
#463=DIRECTION('',(0.0,1.0,0.0));
#464=SURFACE_STYLE_FILL_AREA(#591);
#465=ORIENTED_EDGE('',*,*,#133,.T.);
#466=ORIENTED_EDGE('',*,*,#75,.F.);
#467=ORIENTED_EDGE('',*,*,#141,.F.);
#468=ORIENTED_EDGE('',*,*,#107,.T.);
#469=CARTESIAN_POINT('',(9.99991200956174E-011,4.6,0.0));
#470=DIRECTION('',(-0.990268068747774,0.0,-0.139173100915926));
#471=DIRECTION('',(0.0,1.0,0.0));
#472=SURFACE_STYLE_FILL_AREA(#592);
#473=ORIENTED_EDGE('',*,*,#131,.T.);
#474=ORIENTED_EDGE('',*,*,#107,.F.);
#475=ORIENTED_EDGE('',*,*,#155,.F.);
#476=ORIENTED_EDGE('',*,*,#123,.T.);
#477=CARTESIAN_POINT('',(0.4000000001,4.5999999999,0.0));
#478=DIRECTION('',(-0.0,-0.0,1.0));
#479=DIRECTION('',(-2.50001269685995E-010,1.0,0.0));
#480=DIRECTION('',(-3.4792794700221E-011,0.139173101004206,-0.990268068735367));
#481=CARTESIAN_POINT('',(0.4000000001,0.4000000001,0.0));
#482=DIRECTION('',(0.0,0.0,1.0));
#483=DIRECTION('',(-1.0,-2.49998494128434E-010,0.0));
#484=SURFACE_STYLE_FILL_AREA(#593);
#485=ORIENTED_EDGE('',*,*,#145,.T.);
#486=ORIENTED_EDGE('',*,*,#171,.F.);
#487=ORIENTED_EDGE('',*,*,#89,.F.);
#488=ORIENTED_EDGE('',*,*,#75,.T.);
#489=CARTESIAN_POINT('',(0.4000000001,0.4000000001,0.0));
#490=DIRECTION('',(0.0,-0.0,1.0));
#491=DIRECTION('',(-1.0,-2.49998494128434E-010,0.0));
#492=DIRECTION('',(1.0,0.0,0.0));
#493=SURFACE_STYLE_FILL_AREA(#594);
#494=DIRECTION('',(-1.0,0.0,0.0));
#495=DIRECTION('',(-0.139173101004206,-3.47935942772468E-011,-0.990268068735367));
#496=CARTESIAN_POINT('',(4.5999999999,4.5999999999,-2.2));
#497=DIRECTION('',(0.0,-0.0,1.0));
#498=DIRECTION('',(1.0,2.50002241131141E-010,0.0));
#499=DIRECTION('',(0.139173100915926,0.0,-0.990268068747774));
#500=SURFACE_STYLE_FILL_AREA(#595);
#501=ORIENTED_EDGE('',*,*,#119,.T.);
#502=ORIENTED_EDGE('',*,*,#101,.F.);
#503=ORIENTED_EDGE('',*,*,#79,.F.);
#504=ORIENTED_EDGE('',*,*,#117,.T.);
#505=CARTESIAN_POINT('',(4.9999999999,0.4,0.0));
#506=DIRECTION('',(0.990268068747774,-0.0,-0.139173100915926));
#507=DIRECTION('',(-0.0,-1.0,0.0));
#508=CARTESIAN_POINT('',(4.5999999999,0.4000000001,0.0));
#509=DIRECTION('',(0.0,0.0,1.0));
#510=DIRECTION('',(2.50000020685093E-010,-1.0,0.0));
#511=DIRECTION('',(-0.139173100915926,0.0,-0.990268068747774));
#512=DIRECTION('',(0.0,1.0,0.0));
#513=CARTESIAN_POINT('',(4.5999999999,4.5999999999,0.0));
#514=DIRECTION('',(0.0,-0.0,1.0));
#515=DIRECTION('',(1.0,2.50002241131141E-010,0.0));
#516=DIRECTION('',(3.47932694490801E-011,-0.139173101004206,-0.990268068735367));
#517=DIRECTION('',(0.0,-0.139173100915926,-0.990268068747774));
#518=CARTESIAN_POINT('',(0.4000000001,4.5999999999,-2.2));
#519=DIRECTION('',(0.0,0.0,1.0));
#520=DIRECTION('',(-2.50001269685995E-010,1.0,0.0));
#521=DIRECTION('',(0.0,-1.0,0.0));
#522=SURFACE_STYLE_FILL_AREA(#596);
#523=ORIENTED_EDGE('',*,*,#167,.F.);
#524=ORIENTED_EDGE('',*,*,#159,.F.);
#525=ORIENTED_EDGE('',*,*,#145,.F.);
#526=ORIENTED_EDGE('',*,*,#133,.F.);
#527=ORIENTED_EDGE('',*,*,#131,.F.);
#528=ORIENTED_EDGE('',*,*,#99,.F.);
#529=ORIENTED_EDGE('',*,*,#105,.F.);
#530=ORIENTED_EDGE('',*,*,#119,.F.);
#531=CARTESIAN_POINT('',(2.5,2.5,-2.2));
#532=DIRECTION('',(0.0,0.0,1.0));
#533=DIRECTION('',(1.0,0.0,0.0));
#534=DIRECTION('',(0.0,-1.0,0.0));
#535=CARTESIAN_POINT('',(0.4000000001,0.4000000001,-2.2));
#536=DIRECTION('',(0.0,0.0,1.0));
#537=DIRECTION('',(-1.0,-2.49998494128434E-010,0.0));
#538=DIRECTION('',(-1.0,0.0,0.0));
#539=CARTESIAN_POINT('',(0.4000000001,4.5999999999,0.0));
#540=DIRECTION('',(0.0,0.0,1.0));
#541=DIRECTION('',(-2.50001269685995E-010,1.0,0.0));
#542=SURFACE_STYLE_FILL_AREA(#597);
#543=ORIENTED_EDGE('',*,*,#105,.T.);
#544=ORIENTED_EDGE('',*,*,#129,.F.);
#545=ORIENTED_EDGE('',*,*,#121,.F.);
#546=ORIENTED_EDGE('',*,*,#101,.T.);
#547=CARTESIAN_POINT('',(4.5999999999,4.5999999999,0.0));
#548=DIRECTION('',(-0.0,-0.0,1.0));
#549=DIRECTION('',(1.0,2.50002241131141E-010,0.0));
#550=DIRECTION('',(1.0,0.0,0.0));
#551=SURFACE_STYLE_FILL_AREA(#598);
#552=ORIENTED_EDGE('',*,*,#167,.T.);
#553=ORIENTED_EDGE('',*,*,#117,.F.);
#554=ORIENTED_EDGE('',*,*,#115,.F.);
#555=ORIENTED_EDGE('',*,*,#87,.T.);
#556=CARTESIAN_POINT('',(4.5999999999,0.4000000001,0.0));
#557=DIRECTION('',(-0.0,-0.0,1.0));
#558=DIRECTION('',(2.50000020685093E-010,-1.0,0.0));
#559=SURFACE_STYLE_FILL_AREA(#599);
#560=ORIENTED_EDGE('',*,*,#99,.T.);
#561=ORIENTED_EDGE('',*,*,#123,.F.);
#562=ORIENTED_EDGE('',*,*,#153,.F.);
#563=ORIENTED_EDGE('',*,*,#129,.T.);
#564=CARTESIAN_POINT('',(4.6,4.9999999999,0.0));
#565=DIRECTION('',(0.0,0.990268068747774,-0.139173100915926));
#566=DIRECTION('',(1.0,-0.0,0.0));
#567=CARTESIAN_POINT('',(4.5999999999,0.4000000001,-2.2));
#568=DIRECTION('',(0.0,0.0,1.0));
#569=DIRECTION('',(2.50000020685093E-010,-1.0,0.0));
#570=SURFACE_STYLE_FILL_AREA(#600);
#571=ORIENTED_EDGE('',*,*,#95,.T.);
#572=ORIENTED_EDGE('',*,*,#115,.T.);
#573=ORIENTED_EDGE('',*,*,#79,.T.);
#574=ORIENTED_EDGE('',*,*,#121,.T.);
#575=ORIENTED_EDGE('',*,*,#153,.T.);
#576=ORIENTED_EDGE('',*,*,#155,.T.);
#577=ORIENTED_EDGE('',*,*,#141,.T.);
#578=ORIENTED_EDGE('',*,*,#89,.T.);
#579=CARTESIAN_POINT('',(2.5,2.5,0.0));
#580=DIRECTION('',(0.0,0.0,1.0));
#581=DIRECTION('',(1.0,0.0,0.0));
#582=DIRECTION('',(0.0,0.139173100960066,-0.99026806874157));
#583=SURFACE_STYLE_FILL_AREA(#601);
#584=ORIENTED_EDGE('',*,*,#159,.T.);
#585=ORIENTED_EDGE('',*,*,#87,.F.);
#586=ORIENTED_EDGE('',*,*,#95,.F.);
#587=ORIENTED_EDGE('',*,*,#171,.T.);
#588=CARTESIAN_POINT('',(0.4,0.0,0.0));
#589=DIRECTION('',(-0.0,-0.99026806874157,-0.139173100960066));
#590=DIRECTION('',(-1.0,0.0,0.0));
#591=FILL_AREA_STYLE('',(#602));
#592=FILL_AREA_STYLE('',(#603));
#593=FILL_AREA_STYLE('',(#604));
#594=FILL_AREA_STYLE('',(#605));
#595=FILL_AREA_STYLE('',(#606));
#596=FILL_AREA_STYLE('',(#607));
#597=FILL_AREA_STYLE('',(#608));
#598=FILL_AREA_STYLE('',(#609));
#599=FILL_AREA_STYLE('',(#610));
#600=FILL_AREA_STYLE('',(#611));
#601=FILL_AREA_STYLE('',(#612));
#602=FILL_AREA_STYLE_COLOUR('',#613);
#603=FILL_AREA_STYLE_COLOUR('',#614);
#604=FILL_AREA_STYLE_COLOUR('',#615);
#605=FILL_AREA_STYLE_COLOUR('',#616);
#606=FILL_AREA_STYLE_COLOUR('',#617);
#607=FILL_AREA_STYLE_COLOUR('',#618);
#608=FILL_AREA_STYLE_COLOUR('',#619);
#609=FILL_AREA_STYLE_COLOUR('',#620);
#610=FILL_AREA_STYLE_COLOUR('',#621);
#611=FILL_AREA_STYLE_COLOUR('',#622);
#612=FILL_AREA_STYLE_COLOUR('',#623);
#613=COLOUR_RGB('',0.800000011920929,0.800000011920929,0.800000011920929);
#614=COLOUR_RGB('',0.800000011920929,0.800000011920929,0.800000011920929);
#615=COLOUR_RGB('',0.800000011920929,0.800000011920929,0.800000011920929);
#616=COLOUR_RGB('',0.800000011920929,0.800000011920929,0.800000011920929);
#617=COLOUR_RGB('',0.800000011920929,0.800000011920929,0.800000011920929);
#618=COLOUR_RGB('',0.800000011920929,0.800000011920929,0.800000011920929);
#619=COLOUR_RGB('',0.800000011920929,0.800000011920929,0.800000011920929);
#620=COLOUR_RGB('',0.800000011920929,0.800000011920929,0.800000011920929);
#621=COLOUR_RGB('',0.800000011920929,0.800000011920929,0.800000011920929);
#622=COLOUR_RGB('',0.800000011920929,0.800000011920929,0.800000011920929);
#623=COLOUR_RGB('',0.800000011920929,0.800000011920929,0.800000011920929);
#624=AXIS2_PLACEMENT_3D('PCS',#625,#626,#627);
#625=CARTESIAN_POINT('',(0.0,0.0,0.0));
#626=DIRECTION('',(0.0,0.0,1.0));
#627=DIRECTION('',(1.0,0.0,0.0));
#628=AXIS2_PLACEMENT_3D('MCS',#629,#630,#631);
#629=CARTESIAN_POINT('',(2.5,2.5,0.0));
#630=DIRECTION('',(0.0,0.0,1.0));
#631=DIRECTION('',(1.0,0.0,0.0));
#632=CONSTRUCTIVE_GEOMETRY_REPRESENTATION_RELATIONSHIP('coordinate systems',$,#65,#633);
#633=CONSTRUCTIVE_GEOMETRY_REPRESENTATION('coordinate systems',(#624,#628),#6);
ENDSEC;
END-ISO-10303-21;
